.

Artículos Populares

Otaku : Eduardo Jiménez mayo 30, 2009



Los acordes de digimon 1, Mariposa.

Intro: (es preferible con cegillo)
Mi Do-La-Si
Mi Do-La-Si


Mi Re Mi Re
E---------------------------------------------
B---9-9997---7---10-------9-9997---7----------
G----------9---------------------9-----7------
Mi Re Mi Do-Si-La
E-----------------------------------7---------
B---9-9997---7---10-------9-9997------10------
G-7---------9--------------------9-------9----


Mi
Yo solamente quiero amarte
Sol#m
y todo mi calor brindarte
La
te haré olvidar
Do Re Mi
esas penas que te hacen mal
(E-4-7744-7h4-4h5-4h5h4h5--7)6º cuerda

*Nota: h=notas ligadas

Mi
Hay que dar el sentimiento
Sol#m
y en cada momento vivirlo
La
te haré olvidar
Do Re Mi
esas penas que te hacen mal
(E-4-7744-7h4-4h5-4h5h4h5--7)6º cuerda

Pre-coro:

Do#m Sol#m
Con el amor-o-o-o-or
La Mi
se puede siempre alcanzar lo mejor
Do#m Sol#m
Con el amor-o-o-o-or
La Si Do Re Si
los sueños que tengas se van a cumpliiiir.


Sol#m-La Si
(E--4h5-4h5-7-)1º cuerda

Coro:
Mi Si Do#m
Si tú lo deseas puedes volar
Sol#m La Sol#m Do#m
sólo tienes que confiar mucho en tí y seguir
La Si
puedes contar conmigo te doy todo mi apoyo

Mi Si Do#m
Si tú lo deseas puedes volar
Sol#m La
si tú quieres el cielo alcanzar
Sol#m Do#m
y las estrellas tocar
Do Re Mi(es preferible con cegillo)
Di-gi-mon.

Fin:
Mi Re Mi Re
E---------------------------------------------
B---9-9997---7---10-------9-9997---7----------
G----------9---------------------9-----7------
Mi Re Mi Do-Si-La
E-----------------------------------7---------
B---9-9997---7---10-------9-9997------10------
G-7---------9--------------------9-------9----
Mi
E--------------------------------
B---9h10h12----------------------
G-----------9--------------------


MODIFICACION A LA TRANSCRIPCION DE:
Camilazo (Camilazo12@yahoo.com)

Leave a Reply

Deja tu comentario

Subscribe to Posts | Subscribe to Comments

- Copyright © Locos Otakus - Date A Live - Powered by Blogger - Designed by Johanes Djogan -