.

Artículos Populares

Otaku : Eduardo Jiménez mayo 12, 2009

A lo mejor abro una seccion especial para acordes y tablaturas, todo depende de como sea recibido este post.
Es para guitarra y si no saben leerlas solo les puedo decir que el numero indica el traste y las lineas la cuerda; de arriba hacia abajoestan acomodadas  de la mas delgada a la mas gruesa.






E||--------------------------|------------------------|------------------------|
B||--3-----3--3----3--3--3---|--3----3--3----3--3--3--|--3----3--3----3--3--3--|
G||--2-----2--2----2--2--2s--|--3----3--3----3--3--3--|--0----0--0----0--0--0--|
D||--0-----0--0----0--0--0---|--0----0--0----0--0--0--|--0----0--0----0--0--0--|
A||--------------------------|------------------------|------------------------|
E||--------------------------|------------------------|------------------------|


D5 D5 D5 D5 D5 D5 D5 D5 D5 D5 D5 D5 D5 D5 D5 D5 D5 D5
^ v ^ v ^ v ^ v ^ v ^ v ^ v ^ v ^ v
Q E Q E E E Q E Q E E E Q E Q E E E
------------------------|-------------------------|------------------------|
--3----3--3----3--3--3--|--3----3--3----3--3--3---|--3----3--3----3--3--3--|
--2----2--2----2--2--2--|--2----2--2----2--2--2s--|--3----3--3----3--3--3--|
--0----0--0----0--0--0--|--0----0--0----0--0--0---|--0----0--0----0--0--0--|
------------------------|-------------------------|------------------------|
------------------------|-------------------------|------------------------|


Verso
D5 D5 D5 D5 D5 D5 D5 D5 D5 D5 D5 D5 D5 D5 D5 D5 D5 D5 D5 D5
^ v ^ v ^ v ^ v ^ v ^ v ^ ^ ^ ^ ^ ^ ^ ^
Q E Q E E E Q E Q E E E E E E E E E E E
------------------------|------------------------|-----------------------------|
--3----3--3----3--3--3--|--3----3--3----3--3--3--|--3-----3--3--3--3--3--3--3--|
--0----0--0----0--0--0--|--2----2--2----2--2--2--|--2-----2--2--2--2--2--2--2--|
--0----0--0----0--0--0--|--0----0--0----0--0--0--|--0-----0--0--0--0--0--0--0--|
------------------------|------------------------|-----------------------------|
------------------------|------------------------|-----------------------------|


C5 C5 C5 C5 C5 C5 C5 C5 Bb5 Bb5 Bb5 Bb5 Bb5 Bb5 Bb5 Bb5
^ ^ ^ ^ ^ ^ ^ ^ ^ ^ ^ ^ ^ ^ ^ ^
E E E E E E E E E E E E E E E E
--------------------------|----------------------------------|
--------------------------|----------------------------------|
--5--5--5--5--5--5--5--5--|--3---3---3---3---3---3---3---3---|
--5--5--5--5--5--5--5--5--|--3---3---3---3---3---3---3---3---|
--3--3--3--3--3--3--3--3--|--1---1---1---1---1---1---1---1---|
--------------------------|----------------------------------|


C5 C5 C5 C5 C5 C5 C5 C5 D5 D5 D5 D5 D5 D5 D5 D5
^ ^ ^ ^ ^ ^ ^ ^ ^ ^ ^ ^ ^ ^ ^ ^
E E E E E E E E E E E E E E E E
--------------------------|--------------------------|
--------------------------|--------------------------|
--5--5--5--5--5--5--5--5--|--7--7--7--7--7--7--7--7--|
--5--5--5--5--5--5--5--5--|--7--7--7--7--7--7--7--7--|
--3--3--3--3--3--3--3--3--|--5--5--5--5--5--5--5--5--|
--------------------------|--------------------------|


C5 C5 C5 C5 C5 C5 C5 C5 Bb5 Bb5 Bb5 Bb5 Bb5 Bb5 Bb5 Bb5
^ ^ ^ ^ ^ ^ ^ ^ ^ ^ ^ ^ ^ ^ ^ ^
E E E E E E E E E E E E E E E E
--------------------------|----------------------------------|
--------------------------|----------------------------------|
--5--5--5--5--5--5--5--5--|--3---3---3---3---3---3---3---3---|
--5--5--5--5--5--5--5--5--|--3---3---3---3---3---3---3---3---|
--3--3--3--3--3--3--3--3--|--1---1---1---1---1---1---1---1---|
--------------------------|----------------------------------|


C5 C5 D5 D5 D5 D5 D5 D5 D5 D5 D5 D5 D5 D5
^ v ^ v ^ v ^ v ^ v ^ ^ v ^
E E Q Q Q Q E Q E E E Q E Q E E E
-----------------------|------------------------|------------------------|
-----------------------|--3----3--3----3--3--3--|--3----3--3----3--3--3--|
--5--5-----------------|--2----2--2----2--2--2--|--2----2--2----2--2--2--|
--5--5-----------------|--0----0--0----0--0--0--|--0----0--0----0--0--0--|
--3--3-----------------|------------------------|------------------------|
-----------------------|------------------------|------------------------|


D5 D5 D5 D5 D5 D5 D5 D5 D5 D5 D5 D5 D5 D5 D5 D5 D5 D5
^ v ^ v ^ v ^ v ^ v ^ v ^ v ^ v ^ v
Q E Q E E E Q E Q E E E Q E Q E E E
------------------------|------------------------|------------------------|
--3----3--3----3--3--3--|--3----3--3----3--3--3--|--3----3--3----3--3--3--|
--2----2--2----2--2--2--|--2----2--2----2--2--2--|--2----2--2----2--2--2--|
--0----0--0----0--0--0--|--0----0--0----0--0--0--|--0----0--0----0--0--0--|
------------------------|------------------------|------------------------|
------------------------|------------------------|------------------------|


D5 D5 D5 D5 D5 D5 D5 D5 D5 D5 D5 D5 D5 D5 D5 D5 D5 D5
^ v ^ v ^ v ^ v ^ v ^ v ^ v ^ v ^ v
Q E Q E E E Q E Q E E E Q E Q E E E
------------------------|------------------------|------------------------|
--3----3--3----3--3--3--|--3----3--3----3--3--3--|--3----3--3----3--3--3--|
--2----2--2----2--2--2--|--2----2--2----2--2--2--|--2----2--2----2--2--2--|
--0----0--0----0--0--0--|--0----0--0----0--0--0--|--0----0--0----0--0--0--|
------------------------|------------------------|------------------------|
------------------------|------------------------|------------------------|


Bb5 Bb5 Bb5 Bb5 Bb5 Bb5 Bb5 Bb5 Bb5 Bb5 Bb5 Bb5
^ ^ ^ ^ ^ ^ ^ ^ ^ ^ ^ ^
E E E E Q Q E E E Q E Q
----------------------------|------------------------------|
----------------------------|------------------------------|
--3---3---3---3---3----3----|--15--15--15--15----15--15----|
--3---3---3---3---3----3----|--15--15--15--15----15--15----|
--1---1---1---1---1----1----|--13--13--13--13----13--13----|
----------------------------|------------------------------|


Bb5 Bb5 Bb5 Bb5 Bb5 Bb5 Bb5 Bb5 Bb5 Bb5 Bb5 Bb5
^ ^ ^ ^ ^ ^ ^ ^ ^ ^ ^ ^
E E E E Q Q E E E Q E Q
----------------------------|------------------------------|
----------------------------|------------------------------|
--3---3---3---3---3----3----|--15--15--15--15----15--15----|
--3---3---3---3---3----3----|--15--15--15--15----15--15----|
--1---1---1---1---1----1----|--13--13--13--13----13--13----|
----------------------------|------------------------------|


Bb5 Bb5 Bb5 Bb5 Bb5 Bb5 Bb5 Bb5 Bb5 Bb5 Bb5 Bb5
^ ^ ^ ^ ^ ^ ^ ^ ^ ^ ^ ^
E E E E Q Q E E E Q E Q
----------------------------|------------------------------|
----------------------------|------------------------------|
--3---3---3---3---3----3----|--15--15--15--15----15--15----|
--3---3---3---3---3----3----|--15--15--15--15----15--15----|
--1---1---1---1---1----1----|--13--13--13--13----13--13----|
----------------------------|------------------------------|


A5 A5 A5 A5 A5 A5 A5 A5 A5 A5
^ ^ ^ ^ ^ ^ ^ ^ ^ ^
E E E E E E E E E E Q Q Q
--------------------------|-----------------------|
--------------------------|-----------------------|
--2--2--2--2--2--2--2--2--|--2--2-----------------|
--2--2--2--2--2--2--2--2--|--2--2-----------------|
--0--0--0--0--0--0--0--0--|--0--0-----------------|
--------------------------|-----------------------|


charrs Veise
D5 D5 D5 D5 D5 D5 D5 D5 D5 D5 D5 D5 D5 D5 D5 D5
^ ^ ^ ^ ^ ^ ^ ^ ^ ^ ^ ^ ^ ^ ^ ^
E E E E E E E E E E E E E E E E
------------------------------|-----------------------------|
--3------3--3--3--3--3--3--3--|--3-----3--3--3--3--3--3--3--|
--2------2--2--2--2--2--2--2--|--2-----2--2--2--2--2--2--2--|
--0------0--0--0--0--0--0--0--|--0-----0--0--0--0--0--0--0--|
------------------------------|-----------------------------|
------------------------------|-----------------------------|


C5 C5 C5 C5 C5 C5 C5 C5 C5 C5 C5 C5 C5 C5 C5 C5
^ ^ ^ ^ ^ ^ ^ ^ ^ ^ ^ ^ ^ ^ ^ ^
E E E E E E E E E E E E E E E E
--------------------------|--------------------------|
--------------------------|--------------------------|
--5--5--5--5--5--5--5--5--|--5--5--5--5--5--5--5--5--|
--5--5--5--5--5--5--5--5--|--5--5--5--5--5--5--5--5--|
--3--3--3--3--3--3--3--3--|--3--3--3--3--3--3--3--3--|
--------------------------|--------------------------|


Bb5 Bb5 Bb5 Bb5 Bb5 Bb5 Bb5 Bb5 Bb5 Bb5 Bb5 Bb5 Bb5 Bb5 Bb5 Bb5
^ ^ ^ ^ ^ ^ ^ ^ ^ ^ ^ ^ ^ ^ ^ ^
E E E E E E E E E E E E E E E E
----------------------------------|----------------------------------|
----------------------------------|----------------------------------|
--3---3---3---3---3---3---3---3---|--3---3---3---3---3---3---3---3---|
--3---3---3---3---3---3---3---3---|--3---3---3---3---3---3---3---3---|
--1---1---1---1---1---1---1---1---|--1---1---1---1---1---1---1---1---|
----------------------------------|----------------------------------|


A5 A5 A5 A5 A5 A5 A5 A5 A5 A5 A5 A5 A5 A5 A5 A5 D5 D5 F5 C5 Bb5
^ ^ ^ ^ ^ ^ ^ ^ ^ ^ ^ ^ ^ ^ ^ ^ ^ ^ ^ ^ ^
E E E E E E E E E E E E E E E E E Q Q Q E
--------------------------|--------------------------|-------------------------|
--------------------------|--------------------------|-------------------------|
--2--2--2--2--2--2--2--2--|--2--2--2--2--2--2--2--2--|--7--7----10----5----3---|
--2--2--2--2--2--2--2--2--|--2--2--2--2--2--2--2--2--|--7--7----10----5----3---|
--0--0--0--0--0--0--0--0--|--0--0--0--0--0--0--0--0--|--5--5-----8----3----1---|
--------------------------|--------------------------|-------------------------|


Bb5 D5 D5 F5 C5 Bb5 Bb5
^ ^ ^ ^ ^
Q E E E E E E E Q Q Q E Q E E E E E E
-------------------------|-------------------------|-------------------------|
-------------------------|-------------------------|-------------------------|
--L----------------------|--7--7----10----5----3---|--L----------------------|
--L----2--2--3--5--3--2--|--7--7----10----5----3---|--L----2--2--3--5--3--2--|
--L----------------------|--5--5-----8----3----1---|--L----------------------|
-------------------------|-------------------------|-------------------------|


D5 D5 F5 C5 Bb5 Bb5 D5 D5 F5 C5 Bb5
^ ^ ^ ^ ^ ^ ^ ^ ^ ^
E Q Q Q E Q E E E E E E E Q Q Q E
-------------------------|-------------------------|-------------------------|
-------------------------|-------------------------|-------------------------|
--7--7----10----5----3---|--L----------------------|--7--7----10----5----3---|
--7--7----10----5----3---|--L----2--2--3--5--3--2--|--7--7----10----5----3---|
--5--5-----8----3----1---|--L----------------------|--5--5-----8----3----1---|
-------------------------|-------------------------|-------------------------|


Bb5
Q E E E E E E
-------------------------||
-------------------------||
--L----------------------||
--L----2--2--3--5--3--2--||
--L----------------------||
-------------------------||

Tablatura para bajo del opening nana rose

Intro guitarra x2
tercer timepo entra bajo

G|------8/-----------|
D|-------------------|
A|-------------------|
E|-------------------|

G|-0-0-0-0-0-0-0-0-0---1-2-1-|
D|---------------------------|
A|---------------------------|
E|---------------------------|

G|-0-0-0-0-0-0-0-0-0-----------|
D|---------------------4444444-|
A|-----------------------------|
E|-----------------------------|

When I was darkness at that time
fureteru kuchibiru
heya no katasumi de......
G|-------------------|
D|-------------------|
A|-------------------|
E|-------------------|

I cry

G|-------x------------|
D|-------x------------|
A|-------x------------|
E|-------x------------|

mogakeba mogaku hodo tsukisasaru kono kizu
yaburareta yakusoku hurt me
G|-0-0-0-0-0-0-0-0-0---1-2-1-|
D|---------------------------|
A|---------------------------|
E|---------------------------|

.......

G|-0-0-0-0-0-0-0-0-0-----------|
D|---------------------4444444-|
A|-----------------------------|
E|-----------------------------|

Nobody can save me

PM
G|--/5-66--66-6-5-5--------|
D|-------------------------|
A|-------------------------|
E|-------------------------|

kamisama hitotsu dake
tomete saku you na ............


PM
G|--66--66-6--5-5--------|
D|-----------------------|
A|-----------------------|
E|-----------------------|

my love

G|--5555555555-----------|
D|-----------------------|
A|-----------------------|
E|-----------------------|

I need your love. I'm a broken rose

G|----0-x1---8-x1----|
D|-------------------|
A|-------------------|
E|-------------------|

maichiru kanashimi your song
ibasho nai kodoku na my life

G|--------------------777777777-666666666--------|
D|----------66-77-66-----------------------------|
A|-----------------------------------------------|
E|-----------------------------------------------|
I need your love. I'm broken rose

G|----------56--888888-------|
D|--4x1----------------------|
A|---------------------------|
E|---------------------------|


Oh baby, help me from frozen pain
with your smile, your eyes,
and sing me, just for me

G|--------------------777777777-666666666--------|
D|----------66-77-66-----------------------------|
A|-----------------------------------------------|
E|-----------------------------------------------|
I wanna need your love...
I'm broken rose
I wanna need your love...

G|---------------0-0---4-2-1-|
D|--4-4-----2-1--------------|
A|-------2-------------------|
E|---------------------------|

When you are with me at that time
anata no kage wo oikakete
hadashi de kakenukete stop me

G|--------------------------------------------------------------------|
D|--------------------------------------------------------------------|
A|--x1----x1---x1---x1---x1--x1--------------------------------11-----|
E|--13----11---10---11---13--11------10-10-10-10-10--11-11-10---------|

tozaseba tozasu hodo motsuretekukono ai
yuruyaka ni yasashiku kiss me

G|-0-0-0-0-0-0-0-0-0---1-2-1-|
D|---------------------------|
A|---------------------------|
E|---------------------------|

.......
G|-0-0-0-0-0-0-0-0-0-----------|
D|---------------------4444444-|
A|-----------------------------|
E|-----------------------------|


Nobody can save me

PM
G|--/5-66--66-6-5-5--------|
D|-------------------------|
A|-------------------------|
E|-------------------------|
kogoeru bara no you ni
yasashiku nemuritai....

PM
G|--66--66-6--5-5--------|
D|-----------------------|
A|-----------------------|
E|-----------------------|

my tears
G|--5555555555-----------|
D|-----------------------|
A|-----------------------|
E|-----------------------|

I need your love. I'm a broken rose

G|----0-x1---6-8-x1----|
D|---------------------|
A|---------------------|
E|---------------------|



kareochiru kanashimi my soul
kuzureteku kodoku na little girl


G|-8-8-12-8-6-6-6-x1----5-x1--------------|
D|----------------------------------------|
A|----------------------------------------|
E|----------------------------------------|
I need your love. I'm broken rose


G|--2-2--0--------6-6-5--8-x1---|
D|----------4-x1----------------|
A|------------------------------|
E|------------------------------|
Oh baby, help me from frozen pain
with your smile, your eyes,
and sing me, just for me


G|--------------------777777777-666666666--------|
D|----------66-77-66-----------------------------|
A|-----------------------------------------------|
E|-----------------------------------------------|

I wanna need your love...


G|-----------------------|
D|---0----0---0----0-----|
A|-----------------------|
E|-----------------------|

I'm broken rose
I wanna need your love...

G|----------------------------------------------|
D|------------------------------12-10-----------|
A|--10-1212--10-1212--/14-14-14-----------------|
E|----------------------------------------------|


G|----0-00-----------|
D|-------------------|
A|-------------------|
E|-------------------|


G|-0-0-0-0-0-0-0-0-0---1-2-1-|
D|---------------------------|
A|---------------------------|
E|---------------------------|

G|---7-/11-11-12~-----------|
D|--------------------------|
A|--------------------------|
E|--------------------------|

nobody can help me
nobody can help me
i am a broken rose


G|----0----0---0----0----|
D|-----------------------|
A|-----------------------|
E|-----------------------|
I need your love. I'm a broken rose

G|----0-x1---6-8-x1----|
D|---------------------|
A|---------------------|
E|---------------------|
maichiru kanashimi your song
ibasho nai kodoku na my life

G|-8-8-12-8-6-6-6-x1----5-x1--------------|
D|----------------------------------------|
A|----------------------------------------|
E|----------------------------------------|

I need your love. I'm broken rose


G|--2-2--0--------6-6-5--8-x1---|
D|----------4-x1----------------|
A|------------------------------|
E|------------------------------|

Oh baby, help me from frozen pain
with your smile, your eyes,
and sing me, just for me


G|--------------------777777777-666-1010101010--------|
D|----------66-77-66----------------------------------|
A|----------------------------------------------------|
E|----------------------------------------------------|

{ 6 ComentariosLeer comentariosComentar }

  1. Muuuy bueno, gracias ^^ ...

    Shadow.

    ResponderEliminar
  2. Gracias por las tab, había sacado la intro, pero me costaba el resto, espero que hagas una sección de Tabs.
    Domo arigato gozaimasu.

    ResponderEliminar
  3. me latio pero yo soy bajista no tendras la tab para bajo en serio te lo agradeceria mucho si puedes dejarmela en mi correo yo se ke es mucha lata pero
    ¿podrias hacerme ese grandisimo favor???

    sir_lord_alucard@hotmail.com

    ResponderEliminar
  4. @Shadow:De nada, ya sabes, agregamos cosas nuevas a diario.

    @Justlaw:Si, yo tambien habia sacado ese intro pero me salia un poco diferente, espero y la hayas podido sacar. Si hay una seccion de tabs pero esta muy pobre por ahora, ire agregando nuevas.

    @Anonimo:Acabo de poner la actualizacion y agrege las tablaturas para bajo suerte.

    ResponderEliminar
  5. hey neta bueno yo leia las tablaturas de las cuerdas mar anchas a las mas delgadas no c tokar muxo guitar pero kn la tablatura px si le entiendo mas jejejeje y px esta chido ojala sakes las tablaturas men ojala sale me gusto ta chido we

    ResponderEliminar
  6. Esta chida, pero toco la bateria, aqui hay partituras para eso???

    ResponderEliminar

Deja tu comentario

- Copyright © Locos Otakus - Date A Live - Powered by Blogger - Designed by Johanes Djogan -