.

Artículos Populares

Otaku : Eduardo Jiménez septiembre 06, 2009

Siguiendo con las tablaturas ahora les dejo la del tema de nana "Zero"
intro
e||----------------------------------|----------------------------------|
B||----------------------------------|----------------------------------|
G||------x-x-4-4-x-x-6-6-x-6/7-7-6-x-|------x-x-4-4-x-x-----x-3/4-4-3-x-|
D||--6-6-x-x-4-4-x-x-6-6-x-6/7-7-6-x-|--6-6-x-x-4-4-x-x-4-4-x-3/4-4-3-x-|
A||--6-6-x-x-----x-x-----x---------x-|--6-6-x-x-----x-x-4-4-x---------x-|
E||----------------------------------|----------------------------------|


verse (solo desliza hacia el 10 o 7 y regresa)
||-------------7/10-10-10-10/|-------------5/7-7-7-7/|
||-------------7/10-10-10-10/|-------------5/7-7-7-7/|
||---------------------------|-----------------------|
||---------------------------|-----------------------|
||---------------------------|-----------------------|
||---------------------------|-----------------------|


pre chorus
||--------------------------------|--------------------------------|
||--------------------------------|--------------------------------|
||--6--6-6--x-x-x-6-x-6-x-x-x-x-x-|--9--9-9--x-x-x-9-x-9-x-x-x-x-x-|
||--6--6-6--x-x-x-6-x-6-x-x-x-x-x-|--9--9-9--x-x-x-9-x-9-x-x-x-x-x-|
||--4--4-4--x-x-x-4-x-4-x-x-x-x-x-|--7--7-7--x-x-x-7-x-7-x-x-x-x-x-|
||--------------------------------|--------------------------------|

------------------------------|--------------------------------|
------------------------------|--------------------------------|
----------x-x-x--------7--7-7-|--6--6-6--x-x-x-6-x-6-x-x-x-x-x-|
--6--6-6--x-x-x-4--4-4-7--7-7-|--6--6-6--x-x-x-6-x-6-x-x-x-x-x-|
--6--6-6--x-x-x-4--4-4-5--5-5-|--4--4-4--x-x-x-4-x-4-x-x-x-x-x-|
--4--4-4--------2--2-2--------|--------------------------------|

--------------------------------|--------------------------------|
--------------------------------|--------------------------------|
--9--9-9--x-x-x-9-x-9-x-x-x-x-x-|--8--8-8--x-x-x-8-x-8-x-x-x-x-x-|
--9--9-9--x-x-x-9-x-9-x-x-x-x-x-|--8--8-8--x-x-x-8-x-8-x-x-x-x-x-|
--7--7-7--x-x-x-7-x-7-x-x-x-x-x-|--6--6-6--x-x-x-6-x-6-x-x-x-x-x-|
--------------------------------|--------------------------------|

-------------------------|
-------------------------|
--x-x-8--x-8--x-8--------|
--x-x-8--x-8--x-8--------|
--x-x-6--x-6--x-6--------|
-------------------------|


chorus
||------------------------------|------------------------------|
||------------------------------|------------------------------|
||----------------4--4-4--4-4-4-|----------------6--6-6--6-6-6-|
||--6--6-6--6-6-6-4--4-4--4-4-4-|--4--4-4--4-4-4-6--6-6--6-6-6-|
||--6--6-6--6-6-6-2--2-2--2-2-2-|--4--4-4--4-4-4-4--4-4--4-4-4-|
||--4--4-4--4-4-4---------------|--2--2-2--2-2-2---------------|

------------------------------|-----------------------------|
------------------------------|-----------------------------|
------------------------------|----------------7--7-6--4----|
--2--2-2--2-2-2-4--4-4--4-4-4-|--6--6-6--6-6-6-7--7-6--4-4--|
--2--2-2--2-2-2-4--4-4--4-4-4-|--6--6-6--6-6-6-----------4--|
--0--0-0--0-0-0-2--2-2--2-2-2-|--4--4-4--4-4-4--------------|


|------------------------------|------------------------------|
|------------------------------|------------------------------|
|----------------4--4-4--4-4-4-|----------------6--6-6--6-6-6-|
|--6--6-6--6-6-6-4--4-4--4-4-4-|--4--4-4--4-4-4-6--6-6--6-6-6-|
|--6--6-6--6-6-6-2--2-2--2-2-2-|--4--4-4--4-4-4-4--4-4--4-4-4-|
|--4--4-4--4-4-4---------------|--2--2-2--2-2-2---------------|

|------------------------------|---------------------------|
|------------------------------|---------------------------|
|------------------------------|----------7-7-7-6--4-------|
|--2--2-2--2-2-2-4--4-4--4-4-4-|--6--6-6--7-7-7-6--4--4----|
|--2--2-2--2-2-2-4--4-4--4-4-4-|--6--6-6--------------4----|
|--0--0-0--0-0-0-2--2-2--2-2-2-|--4--4-4-------------------|

|--------------------|
|--------------------|
|--------------------|
|--2--------4--------|
|--2--------4--------|
|--0--------2--------|

Estructura:

intro
verse
pre chorus
chorus
intro
verse
pre chorus
chorus
solo (Es el mismo que el intro)
chorus
intro

Leave a Reply

Deja tu comentario

Subscribe to Posts | Subscribe to Comments

- Copyright © Locos Otakus - Date A Live - Powered by Blogger - Designed by Johanes Djogan -