.

Artículos Populares

Otaku : Eduardo Jiménez agosto 23, 2009

Quiero dejarles unos acordes, mas bien tablaturas de un juego que me encanta, como ya se habran dado cuenta.
Pues aqui estan, son de final fantasy 9 y 10

Acordes melodies of life:
E C#m A G#m
Alone for a while I've been searching through the dark
A E F#m7 B
For traces of the love you left inside my lonely heart
G#m7 C#m7 F#m7 Am
To weave by picking up the pieces that remain
E C#m Amaj7 B7
Melodies of life--love's lost refrain

E C#m A G#m
Our paths they did cross, though I cannot say just why
A E F#m7 B
We met, we laughed, we held on fast, and then we said goodbye
G#m7 C#m7 F#m7 Am
And who'll hear the echoes of stories never told?
E A E
Let them ring out loud till they unfold




A B G#m C#
In my dearest memories, I see you reaching out to me
F#m Dmaj7 Bm C#m
B7
Though you're gone, I still believe that you can call out my name

E G#m A
A voice from the past, joining yours and mine
F#m B
Adding up the layers of harmony
E G#m A
And so it goes, on and on
F#m
Melodies of life,
D6 B7 E
To the sky beyond the flying birds--forever and beyond

E C#m A G#m
So far and away, see the bird as it flies by
A E F#m7 B
Gliding through the shadows of the clouds up in the sky
G#m7 C#m7 F#m7 Am
I've laid my memories and dreams upon those wings
E C#m Amaj7 B7
Leave them now and see what tomorrow brings

A B G#m C#
In your dearest memories, do you remember loving me?
F#m Dmaj7 Bm C#m
B7
Was it fate that brought us close and now leaves me behind?

E G#m A
A voice from the past, joining yours and mine
F#m B
Adding up the layers of harmony
E G#m A
And so it goes, on and on
F#m
Melodies of life,
D6 B7 E
To the sky beyond the flying birds--forever and beyond

E G#m A
If I should leave this lonely world behind
F#m B
Your voice will still remember our melody
E G#m A
Now I know we'll carry on
F#m
Melodies of life
D6 B7
Come circle round and grow deep in our hearts
E
As long as we remember

Tablaturas melodies of life:

Intro

e--4---2---0---------0-----------2-4-5-4-0-4-2---4-0---------------0
B----------------2-4---4-2-0-----------------------------1-0--------
G------------------------------------------------------------2-1----
D-------------------------------------------------------------------
A-------------------------------------------------------------------
E-------------------------------------------------------------------

Main theme

e------------------------------------------------------------
B------------------------------------------------------------
G----1--1-----------------------------------------1-2-1---1--
D---------4-2---2-1---1-2-4-----------1-2-------2-------2---4
A--2----------------4-------2-----2-4-----4-4-2--------------
E------------------------------------------------------------

e-------------------------------------------------------------
B----0---0-2-0------------------------------------------------
G--1-----------2-2-1-1-----1-2---------------------------1-2--
D----------------------4-4---------6-4-2-------2-----2-4-----4
A------------------------------------------2-4----------------
E-------------------------------------------------------------

e------------------------------------------------------------
B------------------------------------------------------------
G----1--1-----------------------------------------1-2-1---1--
D---------4-2---2-1---1-2-4-----------1-2-------2-------2---4
A--2----------------4-------2-----2-4-----4-4-2--------------
E------------------------------------------------------------

e-------------------------------------------------------------
B----0---0-2-0------------------------------------------------
G--1-----------2-2-1-1-----1-2-------------------------1------
D----------------------4-4---------6-4-2-------2-----4---4-2--
A------------------------------------------2-4----------------
E-------------------------------------------------------------

e-------------------------------------------------------------
B----------------------0--------------------------------------
G--2-1---------------1---2-1-------1-------1-2-----1----------
D------4-2-1-2-4-------------4-3-4-----------------------4----
A-------------------------------------------------------------
E-------------------------------------------------------------

e-------------------------------------------------------------
B------------------------------0------------------------------
G--1-2-1---------1-------------------2------------------------
D--------4-2-1-2---------------------------4------------------
A-------------------------------------------------------------
E-------------------------------------------------------------

e-------------------------------------------------------------
B-------------------------------------------------------------
G--------1-------------------------2-1-1----------------------
D--2---4---1-----1-1-2-1-----------------4-4---2----1-2-4-----
A------------------------2-4-----4----------------4-----------
E-------------------------------------------------------------

e-------------------------------------------------------------
B----------0----------------------------0-------------------0-
G--------1------1---------2-1-1-----------2-2-1-1-----1--2----
D--2---4----------1-------------4-4---4-----------4-----------
A-------------------4-----------------------------------------
E-------------------------------------------------------------

e-----------------------
B-----------------------
G--1---1h2-1------------
D------------1-4-4-----2
A-----------------------
E-----------------------

Tablatura Suteki Da Ne
E  E  E  E  E  E  E  E     E  E  E  E  Q    Q     
E||--------8--------7--------|--5--------3--L---------|
B||--5--6-----------------8--|-------------------0----|
G||-----------7--9-----5-----|-----4--5----------0----|
D||--7-----5-----------------|--0---------------------|
A||--------------8-----7-----|-------------------2----|
E||--------------------------|-------------------0----|


                                                        ^          ^           
  E  E  E  E  E  E  E  E     E  E  E  E  E  E  E  E     E  E  Q    Q    E  E   
--0-----------7--------7--|--0--------------------0--|--------0---------------|
--------1-----------0-----|--------------------3-----|-------------3----0-----|
-----2-----2-----0--------|--------2--------0--------|--2----------4-------0--|
--------------------------|-----3-----3--2-----------|--3---------------------|
--0-----------------------|--------------------------|-----3------------------|
--------------3-----------|--1-----------0-----------|--1----------3----------|


              ^                                                                 
  E  E  E  E  Q    Q       E  E  E  E  E  E   Q       E  E  E  E  E  E  E   E   
--0--------1--0---------|--5--------5--7-----10----|--8-----7-----5-----8--10--|
--------1-----0----0----|--------5-----------------|---------------------------|
-----0--------2----1----|-----5--------------------|-----5-----4-----2---------|
------------------------|--3--------------0--------|---------------------------|
--3---------------------|--------------------------|--0-----------0------------|
--------------0---------|--------------3-----------|---------------------------|


   ^                       ^                           
   H        E  E  E  E     Q    Q    E  T  T  S E  E   
--12-----------0-----8--|--7----0----8--7h-8p-7-5-----|
--10--------------6-----|--------------------------8--|
--10--------7-----------|--0--------------------------|
---0--------------------|-----------------------------|
------------------------|-----------------------------|
------------------------|--0--------------------------|


  E  E  E  E  S  S E  E  E     E  E  E  E  S  S E  E  E   
--5-------------------0-----|----------------------0-----|
-----------0--1p-0-------0--|-----------0--1p-0-------0--|
--------2----------2--------|--------2----------2--------|
-----2----------------------|-----2----------------------|
--0-------------------------|--0-------------------------|
----------------------------|----------------------------|


  E  E  E  E  E  E  E  E     E  E  E  E  E  E  E  E   
--------------------------|--0-----1--0--------------|
--------0--1--0-----1--3--|--------------3-----------|
--2-----0-----------2--0--|--------0-----------------|
-----2-----------0--------|-----2-----------------0--|
--0-----------------------|--3--------------0--2-----|
--------------3-----------|--------------3-----------|


  E  E  E  E  E  E  E  E       E  E  E  E  E  E  E  E   
--0-----------------------|----------------------------|
--------3--1--0-----------|--0g1-----0-----------------|
-----0-----0--------0-----|----2--------2--0-----------|
-----------------0-----0--|-------2-----2--------2-----|
--3-----------------------|----0--------------2-----2--|
--------------3-----------|----------------0-----------|


  E  E  E  E  E  E  E  E     E  E  E  E  E  E  E  E   
--------------------------|--0-----1--0--------------|
--------0--1--0-----1--3--|--------1-----3-----------|
--0--2--0--------------0--|-----0--------------------|
-----2-----------0--------|-----------------------0--|
--0-----------------------|--3--------------0--2-----|
--------------3-----------|--------------3-----------|


                             ^                                               
  E  E  E  E  E  E  E  E     E   E  H.              E  E  E  E  E  E  E  E   
--0-----------------------|----------------------|--------------------------|
--------3--1-----0--------|----------------------|--------0--1--0-----1--3--|
--------------2-----0-----|--0h--2--2------------|--2-----0-----------2--0--|
--------3-----0--------2--|--2------2------------|-----2-----------0--------|
-----3--------------------|--0-------------------|--0-----------------------|
--1-----------3-----------|----------------------|--------------3-----------|


  E  E  E  E  E  E  E  E     E  E  E  E  E  E  E  E   
--0-----1--0--------------|--0-----------------------|
--------------3-----------|--------3--1--0-----------|
--------0-----------------|-----0-----0--------0-----|
-----2-----------------0--|-----------------0-----0--|
--3--------------0--2-----|--3-----------------------|
--------------3-----------|--------------3-----------|


    E  E  E  E  E  E  E  E     E  E  E  E  E  E  E  E   
----------------------------|--------------------------|
--0g1-----0-----------------|--------0--1--0-----1--3--|
----2--------2--0-----------|--0--2--0--------------0--|
-------2-----2--------2-----|-----2-----------0--------|
----0--------------2-----2--|--0-----------------------|
----------------0-----------|--------------3-----------|


  E  E  E  E  E  E  E  E     E  E  E  E  E  E  E  E   
--0-----1--0--------------|--0-----------------------|
--------1-----3-----------|--------3--1-----0--------|
-----0--------------------|--------------2-----0-----|
-----------------------0--|--------3-----0--------2--|
--3--------------0--2-----|-----3--------------------|
--------------3-----------|--1-----------3-----------|


  E   E  Q     Q     Q       E.  S E  E  S E.  E  E   
---------------8----10----|--8---7-7--5--5-3---------|
--------------10-----8----|----------------0---1--3--|
--0h--2--2-----9-----7----|--9---7-7--5--5-----2-----|
--2------2----------------|--7---5-5--3--3-2---------|
--0-----------------------|--------------------------|
--------------------------|--------------------3-----|


  ^           ^              ^           ^            
  E  E  E  E  E  E  E  E     E  E  E  E  E  E  E  E   
--0-----3-----------------|--0-----------------------|
--1-----1-----3-----------|--1-----3--1-----1--1--3--|
-----0-----0--0-----0-----|--------0-----2--------4--|
-----------------0-----0--|-----2--------3-----3-----|
--3-----------------------|--0-----------------------|
--------------3-----------|--------------1-----------|


                             ^                     ^           ^            
  E  E  E  E  E  E  E  E     H.           E  E     E  E  E  E  E  E  E  E   
--0-----3-----------------|---------------------|--0-----3-----------------|
--1-----1-----3-----1--0--|---------------1--3--|--1-----1-----3-----------|
-----0-----0--------0-----|--2------------2-----|-----0-----0--0-----0-----|
-----------------0--------|--3------------------|-----------------0-----0--|
--3-----------------------|---------------------|--3-----------------------|
--------------3-----------|--1------------3-----|--------------3-----------|


  ^           ^              ^           ^              ^                 
  E  E  E  E  E  E  E  E     E  E  E  E  E  E  E  E     W                 
--0-----------------------|--0-----3-----7-----3-----|--5----------------|
--1-----3--1-----1--1--3--|--1-----1-----------0-----|-------------------|
--2-----0-----2--------4--|-----0-----0-----0-----0--|--5----------------|
-----2--------3-----3-----|--------------0-----------|--3----------------|
--0-----------------------|--3-----------------------|-------------------|
--------------1-----------|--------------3-----------|-------------------|


  Q    Q    Q    Q       E  E  E  E  E  E  E  E     E  E  E  E  E  E  E  E   
-------5----3----1----|--0-----------------------|--------3-----0-----------|
----------------------|--------0-----------0-----|--------0-----1-----0-----|
-------5----4----2----|-----0-----0-----0-----0--|--------------------0-----|
--3-------------------|--2-----------------------|-----2-----2-----2--------|
----------------------|--------------------------|--0--------------------0--|
----------------------|--0-----------0-----------|--------------------------|


  ^     ^                                          ^                   
  E  E  H.              E  E  E  E  E  E  E  E     E  E  H.            
---------------------|--------0-----------------|-----0---------------|
-----1--1------------|--------1-----3-----1-----|--3------------------|
--2------------------|--------------4-----2-----|--0-----0------------|
--3-----3------------|-----3-----3-----3-----3--|--2------------------|
---------------------|--------------------------|--2------------------|
--1-----1------------|--1-----------------------|--0------------------|


                                     ^    ^                                  
  Q    Q    Q    Q       E  E  E  E  Q    S S E     E  E  E  E  E  E  E  E   
------------7----3----|--5-----------------------|--------------------------|
-------5--------------|--------5-----0----3-1-0--|--1-----------0-----------|
------------0----4----|-----5-----5--0----0------|--------2-----------2-----|
-------2--------------|--3-----------2----0------|-----2-----2-----3-----3--|
----------------------|--------------------------|--0-----------0-----------|
--0-------------------|-------------------3------|--------------------------|


                                             NH        
  E  E  E  E  E  E  E  E     E  E  S S E     H         
--------------------------|--0------------------------|
--1-----------0-----------|--------1-0----<>12--------|
--------2-----------2-----|-----2------2--------------|
-----2-----2-----3-----3--|---------------------------|
--0-----------0-----------|--0------------------------|
--------------------------|---------------------------|


  E  E  E  E  E  E  E  E     E  E  E  E  E  E  E  E   
--5-----------------------|--------------0-----------|
--------5-----------5-----|--------0-----------0-----|
-----5-----5-----5-----5--|-----2-----2-----2-----2--|
--3-----------3-----------|--0-----------------------|
--------------------------|--------------------------|
--------------------------|--------------------------|


  E  E  E  E  E  E  E  E     E  E  E  E  E  E  E  E   
--------------0-----------|--------------0-----------|
-----------0-----------0--|-----------0-----------0--|
--------5-----------5-----|--------5-----------5-----|
-----7-----------7--------|-----7-----------7--------|
--0-----------------------|--0-----------------------|
--------------------------|--------------------------|


                                                        v                  
  E  E  E  E  E  E  E  E     E  E  E  E  E  E  E  E     W                  
--------8--------7--------|--5--------3--1--------0--|--0----------------||
--5--6-----------------8--|-----0--1-----------------|--0----------------||
-----------7--9-----5-----|-----------------0--2-----|--2----------------||
--7-----5-----------------|--------2-----------------|--2----------------||
--------------8-----7-----|--0-----------------------|--0----------------||
--------------------------|--------------0-----3-----|-------------------||
Tablatura you are not alone: (me gusta mucho esta)
E||-------|----------------------|----------------------|----------------------|
B||-------|----------------------|----------------------|----------------------|
G||-------|--2-------------------|--2-------------------|--2-------------------|
D||-------|--2-------------------|--3-------------------|--2-------------------|
A||-------|--0----0----0----0----|--0----0----0----0----|--0----0----0----0----|
E||-------|----------------------|----------------------|----------------------|

  Q    Q    Q    Q       Q    Q    Q    Q       Q    Q    Q    Q
----------------------|----------------------|----------------------|
----------------------|----------------------|----------------------|
--2-------------------|--2-------------------|--2-------------------|
--3-------------------|--2-------------------|--1-------------------|
--0----0----0----0----|--0----0----0----0----|--0----0----0----0----|
----------------------|----------------------|----------------------|

  Q    Q    Q    Q       Q    Q    Q    Q       Q    Q    Q    Q
----------------------|----------------------|----------------------|
----------------------|----------------------|----------------------|
--2-------------------|--2---------2---------|--2-------------------|
--2-------------------|--0---------2---------|--3-------------------|
--0----0----0----0----|--0----0----0----0----|--0----0----0----0----|
----------------------|----------------------|----------------------|

  Q    Q    Q    Q       Q    Q    Q    Q       Q    Q    Q    Q
----------------------|----------------------|----------------------|
----------------------|--1-------------------|----------------------|
--0-------------------|------------2---------|--0----2--------------|
--0-------------------|------------2---------|------------2---------|
--2----2----2----2----|--0----0---------0----|------------0----0----|
----------------------|----------------------|--0-------------------|

  Q    Q    E   E  Q       Q    Q    Q    Q       Q    Q    Q    Q
------------------------|----------------------|--0----0----0---------|
--1----1----1p--0-------|-------0--------------|-----------------3----|
-------------------2----|--0-------------------|------------2---------|
------------3-----------|------------2---------|--3-------------------|
--0---------------------|--3---------0----0----|------------0---------|
------------------------|----------------------|----------------------|

  Q    Q    Q    Q       Q    Q    E   E  Q       Q    Q    Q    Q
----------------------|------------------------|----------------------|
--1---------1----0----|-------0----1p--0-------|--0-------------------|
-------0--------------|--2----------------2----|------------1---------|
--2-------------------|--0---------1-----------|-------2---------0----|
------------0---------|------------0-----------|----------------------|
----------------------|------------------------|--0-------------------|

  Q    Q    Q    Q       Q    Q    Q    Q       Q    Q    E   E  Q
----------------------|----------------------|------------------------|
--1-------------------|----------------------|--1----1----1p--0-------|
------------2---------|--0----2--------------|-------------------2----|
------------2---------|------------2---------|------------3-----------|
--0----0---------0----|------------0----0----|--0---------------------|
----------------------|--0-------------------|------------------------|

  Q    Q    Q    Q       Q    Q    Q    Q       Q    Q    Q    Q
------------0---------|--0----0----0---------|----------------------|
-------0--------------|-----------------3----|--1---------1----0----|
--0-------------------|------------2---------|-------0--------------|
----------------------|--3-------------------|--2-------------------|
--2---------3----0----|------------0---------|------------0---------|
----------------------|----------------------|----------------------|

  Q    Q    E  E  Q       Q    Q    E  E  Q       Q    Q    Q    Q
-----------------------|-----------------------|--8---------5---------|
-------1----0----------|-----------------------|--5---------5---------|
--2------------2--0----|--2--------------------|--5---------5---------|
--0--------------------|-----------------------|----------------------|
-----------------------|--0----3----2--0-------|--0----0----0----0----|
------------0----------|------------------3----|----------------------|

  Q    Q    Q    Q       Q    Q    E  E  Q       Q    Q    Q    Q
--3----5----0---------|--8----8----8--7--5----|--3----5----0---------|
--0---------0---------|--5--------------------|------------0---------|
--0---------0---------|--5--------------------|------------0---------|
----------------------|-----------------------|----------------------|
-----------------0----|--0---------0----------|--3--------------0----|
--0-------------------|-----------------------|----------------------|

   Q     Q     Q     Q       Q    Q    Q    Q       Q    Q    E  E  Q
--12----12----12----10----|--8---------8----7----|--5----7----8--7--5----|
--------------------------|----------------------|-----------------------|
--------------------------|-------0--------------|-----------------------|
--------------10----------|----------------------|--0--------------------|
---8-----------8----------|--7-------------------|------------6----------|
--------------------------|----------------------|-----------------------|

  Q    Q    Q    Q       Q    Q    Q    Q       Q    Q    Q    Q
--7-------------------|--8---------5---------|--3----5----0---------|
------------0---------|--5---------5---------|--0---------0---------|
----------------------|--5---------5---------|--0---------0---------|
-------6--------------|----------------------|----------------------|
----------------------|--0----0----0----0----|-----------------0----|
--0--------------0----|----------------------|--0-------------------|

  Q    Q    E  E  Q       Q    Q     Q    Q        Q     Q     Q     Q
--8----8----8--7--5----|-------7----12---------|--12----12----12----10----|
--5--------------------|--8--------------------|--------------------------|
--5--------------------|-----------------------|--------------------------|
-----------------------|-----------------------|--------------10----------|
--0---------0----------|--7--------------------|---8-----------8----------|
-----------------------|-------------8----0----|--------------------------|

  Q    Q    Q    Q       Q    Q    E   E  Q        Q    Q    Q    Q
--8---------8----7----|--5----8----7-----------|-----------------------|
----------------------|---------------10--8----|--10---------1----0----|
-------0--------------|------------------------|-----------------------|
----------------------|--0---------------------|-----------------------|
--7-------------------|------------7-----------|---0----0----0----0----|
----------------------|------------------------|-----------------------|

  E   E  E  E  Q    E  E     Q    E  E  Q    Q       Q    E  E  Q    Q
---------------5----------|--3--------------------|-----------------------|
--------------------------|-------------5---------|--3----------3----1----|
--------------------------|------------------5----|-----------------------|
--2s--7-------------------|-----------------------|--0----0--0--3----2----|
--0------0--0--0----0--0--|--3----3--3--3----3----|-----------------------|
--------------------------|-----------------------|-----------------------|

  Q    E  E  Q    Q       Q    E  E  Q    Q       Q    E  E  Q    E  E
-------0---------------|-----------------------|--0----------8----------|
--3--------------------|-------------1----3----|------------------------|
-------------2----0----|--2--------------------|------------------------|
--0----0--0--0----2----|--3----3--3--2----0----|------------------------|
-----------------------|-----------------------|--3----0--0--0----0--0--|
-----------------------|-----------------------|------------------------|

  Q    E  E  Q    E  E     Q    E  E  Q    Q        Q    Q     Q    Q
--7---------------------|--7--------------------|-------------------7----|
-------------0----------|-------------0---------|--10----8----10---------|
-------------0----------|-----------------------|--10----9----10---------|
------------------------|-------------6---------|------------------------|
-------7--7--7----7--7--|--7----7--7--7----7----|---8--------------------|
--7---------------------|-----------------------|------------------------|

  Q    E  E   Q    Q       Q    E  E  Q    Q       Q    E  E  Q    Q
--8----------------0----|-----------------------|-------0---------------|
--------------8---------|--3----------3----1----|--3--------------------|
-------------------0----|-----------------------|-----------------------|
------------------------|--3----3--3--3----2----|--0----0--0------------|
-------------10---------|-----------------------|-------------3----2----|
--8----8--8-------------|-----------------------|-----------------------|

  Q    E  E  Q    E  E     Q    E  E  Q    E  E     Q    E  E  Q    Q
------------------------|------------------------|-----------------------|
------------------0--1--|--0---------------------|-----------------------|
--2---------------------|-------------0----------|--2--------------------|
--2---------------------|------------------------|--2--------------------|
--0----0--0--0----------|-------------2----2--2--|--0----0--0--0----0----|
------------------------|--0----0--0-------------|-----------------------|

  Q    E  E  Q    Q       E   E  E  E  Q    E  E     Q    E  E  Q    Q
-----------------------|---------------5----------|--3--------------------|
-------------1----0----|--------------------------|-------------5---------|
--2--------------------|--------------------------|------------------5----|
--3--------------------|--2s--7-------------------|-----------------------|
--0----0--0--0----0----|--0------0--0--0----0--0--|--3----3--3--3----3----|
-----------------------|--------------------------|-----------------------|

  Q    E  E  Q    Q       Q    E  E  Q    Q       Q    E  E  Q    Q
-----------------------|-------0---------------|-----------------------|
--3----------3----1----|--3--------------------|-------------1----3----|
-----------------------|-------------2----0----|--2--------------------|
--0----0--0--3----2----|--0----0--0--0----2----|--3----3--3--2----0----|
-----------------------|-----------------------|-----------------------|
-----------------------|-----------------------|-----------------------|

  Q    E  E  Q    E  E     Q    E  E  Q    E  E     Q    E  E  Q    Q
--0----------8----------|--7---------------------|--7--------------------|
------------------------|-------------0----------|-------------0---------|
------------------------|-------------0----------|-----------------------|
------------------------|------------------------|-------------6---------|
--3----0--0--0----0--0--|-------7--7--7----7--7--|--7----7--7--7----7----|
------------------------|--7---------------------|-----------------------|

   Q    Q     Q    Q       Q    E  E   Q    Q       Q    E  E  Q    Q
-------------------7----|--8----------------0----|-----------------------|
--10----8----10---------|--------------8---------|--3----------3----1----|
--10----9----10---------|-------------------0----|-----------------------|
------------------------|------------------------|--3----3--3--3----2----|
---8--------------------|-------------10---------|-----------------------|
------------------------|--8----8--8-------------|-----------------------|

  Q    E  E  Q    Q       Q    E  E  Q    E   E     Q    E  E  Q    E  E
-------0---------------|-------------------------|------------------------|
--3--------------------|------------------0h--1--|--0---------------------|
-----------------------|--2----------------------|-------------0----------|
--0----0--0------------|--2----------------------|------------------------|
-------------3----2----|--0----0--0--0-----------|-------------2----2--2--|
-----------------------|-------------------------|--0----0--0-------------|

  Q    E  E  Q    Q       Q    E  E  Q    Q       Q    Q    Q    Q
-----------------------|-----------------------|----------------------|
-----------------------|-----------------------|----------------------|
--2--------------------|--2--------------------|--2-------------------|
--2--------------------|--2--------------------|--2-------------------|
--0----0--0--0----0----|--0----0--0--0----0----|--0----0----0----0----|
-----------------------|-----------------------|----------------------|

  Q    Q    Q    Q       Q    Q    Q    Q       Q    Q    Q    Q
----------------------|----------------------|----------------------|
----------------------|----------------------|----------------------|
--2-------------------|--2-------------------|--2-------------------|
--3-------------------|--2-------------------|--1-------------------|
--0----0----0----0----|--0----0----0----0----|--0----0----0----0----|
----------------------|----------------------|----------------------|

  Q    Q    Q    Q       Q    Q    Q    Q       Q    Q    Q    Q
----------------------|----------------------|----------------------|
----------------------|----------------------|----------------------|
--2-------------------|--2---------2---------|--2-------------------|
--2-------------------|--0---------2---------|--3-------------------|
--0----0----0----0----|--0----0----0----0----|--0----0----0----0----|
----------------------|----------------------|----------------------|

  Q    Q    Q    Q       Q    Q    Q    Q       Q    Q    Q    Q
----------------------|----------------------|----------------------|
----------------------|--1-------------------|----------------------|
--0-------------------|------------2---------|--0----2--------------|
--0-------------------|------------2---------|------------2---------|
--2----2----2----2----|--0----0---------0----|------------0----0----|
----------------------|----------------------|--0-------------------|

Q Q E E Q Q Q Q Q Q Q Q Q
------------------------|----------------------|--0----0----0---------|
--1----1----1p--0-------|-------0--------------|-----------------3----|
-------------------2----|--0-------------------|------------2---------|
------------3-----------|------------2---------|--3-------------------|
--0---------------------|--3---------0----0----|------------0---------|
------------------------|----------------------|----------------------|

  Q    Q    Q    Q       Q    Q    E   E  Q       Q    Q    Q    Q
----------------------|------------------------|----------------------|
--1---------1----0----|-------0----1p--0-------|--0-------------------|
-------0--------------|--2----------------2----|------------1---------|
--2-------------------|--0---------1-----------|-------2---------0----|
------------0---------|------------0-----------|----------------------|
----------------------|------------------------|--0-------------------|

  Q    Q    Q    Q       Q    Q    Q    Q       Q    Q    E   E  Q
----------------------|----------------------|------------------------|
--1-------------------|----------------------|--1----1----1p--0-------|
------------2---------|--0----2--------------|-------------------2----|
------------2---------|------------2---------|------------3-----------|
--0----0---------0----|------------0----0----|--0---------------------|
----------------------|--0-------------------|------------------------|

  Q    Q    Q    Q       Q    Q    Q    Q       Q    Q    Q    Q
------------0---------|--0----0----0---------|----------------------|
-------0--------------|-----------------3----|--1---------1----0----|
--0-------------------|------------2---------|-------0--------------|
----------------------|--3-------------------|--2-------------------|
--2---------3----0----|------------0---------|------------0---------|
----------------------|----------------------|----------------------|

  Q    Q    E  E  Q       Q    Q    E  E  Q       E  E  E  E  E  E  S  S E
-----------------------|-----------------------|-----------0--3--2--2h-3-2--|
-------1----0----------|-----------------------|--------1-------------------|
--2------------2--0----|--2--------------------|-----2----------------------|
--0--------------------|-----------------------|--2-------------------------|
-----------------------|--0----3----2--0-------|--0-------------------------|
------------0----------|------------------3----|----------------------------|

  ^
  Q    S S Q    E  Q       H         H
--0--------7-------5----|-----------17--------|-----------|-----------|
---------5---------5----|---------------------|-----------|-----------|
-------7-----------6----|---------------------|-----------|-----------|
-------------------7----|---------------------|-----------|-----------|
------------------------|---------------------|-----------|-----------|
------------------------|---------------------|-----------|-----------|

-----------|-----------|-----------|-----------|-----------|-----------|
-----------|-----------|-----------|-----------|-----------|-----------|
-----------|-----------|-----------|-----------|-----------|-----------|
-----------|-----------|-----------|-----------|-----------|-----------|
-----------|-----------|-----------|-----------|-----------|-----------|
-----------|-----------|-----------|-----------|-----------|-----------|

-----------|-----------|-----------|-----------|-----------||
-----------|-----------|-----------|-----------|-----------||
-----------|-----------|-----------|-----------|-----------||
-----------|-----------|-----------|-----------|-----------||
-----------|-----------|-----------|-----------|-----------||
-----------|-----------|-----------|-----------|-----------||

Duration Legend
---------------
W - whole
H - half
Q - quarter
E - 8th
S - 16th
T - 32nd
X - 64th
. - note dotted
|-n-| - n-tuplets

Tablature Legend
----------------
L - tied note
x - dead note
g - grace note
(n) - ghost note
> - accentuded note
NH - natural harmonic
AH - artificial harmonic
TH - tapped harmonic
SH - semi harmonic
PH - pitch harmonic
h - hammer on
p - pull off
b - bend
br - bendRelease
pb - preBend
pbr - preBendRelease
brb - bendReleaseBend
\n/ - tremolo bar dip
\n - tremolo bar dive
-/n - tremolo bar Release up
/n\ - tremolo bar inverted dip
/n - tremolo bar return
-\n - tremolo bar Release down
S - shift slide
s - legato slide
/ - slide into from below or out of upwards
\ - slide into from above or out of downwards
~ - vibrato
W - wide vibrato
tr - trill
TP - tremolo picking
T - tapping
S - slap
P - pop
< - fade in
^ - brush up
v - brush down

Leave a Reply

Deja tu comentario

Subscribe to Posts | Subscribe to Comments

- Copyright © Locos Otakus - Date A Live - Powered by Blogger - Designed by Johanes Djogan -