.

Artículos Populares

Archive for mayo 2009

Como preparar onigiris otakus.

Por: Eduardo Jiménez
Bien esta es la receta para preparar arroz en esas formas tan graciosas como las de arriba.
Primero preparemos el arroz:
Ingredientes:

3 tazas de arroz
3 1/2 tazas de agua
5 cucharadas de vinagre de arroz
1 cucharadita de azúcar
1/2 cucharadita de sal

Preparacion :

Enjuagar el arroz las veces necesarias hasta que el agua salga clara; escurrir de un colador por espacio de dos minutos. Vaciar el arroz en una olla de peltre, agregar el agua; cubrir la superficie de la olla con un lienzo húmedo y encima colocar la tapa; cocinar de ocho a 10 minutos.

Cuando haya pasado ese tiempo y ya esté cocido, dejar reposar de ocho a 10 minutos.
Mientras tanto, en un recipiente mezclar el vinagre con el azúcar y la sal hasta que se disuelvan.

Pasar el arroz a un bowl de plástico y agregar el vinagre preparado, mezclar ambos ingredientes, ayudándose con una pala de madera, pero sin llegar a batir. Enfriar el arroz con un abanico, ya frio se podrá usar para hacer los sushis.

Como hacer las bolitas:
Ingredientes:

-Arroz japonés cocido.
-Láminas de nori seco.
-Ingrediente deseado en el interior.
-Agua, sésamo blanco y sal (para las manos).

Preparacion:

Para empezar, tenemos que hacer bolitas o triangulitos de arroz con las manos, pero para evitar que el arroz se pegue, tenemos que humedecernos un poquito las manos con agua, espolvorear un poco de sésamo y un poquito de sal.
Con las manos ya untadas, llenar la mano de una buena cantidad de arroz (suficiente para hacer una bola, ni muy grande ni muy pequeña) y con las manos ir presionando suavemente para que el arroz vaya agrupándose y tenga la forma deseada.
Seguidamente, vamos a hacer un pequeño agujero en el centro de la bola de arroz, donde introduciremos el ingrediente deseado y volveremos a tapar el agujero (siempre dándole forma a la bola de arroz).
Para envolver el onigiri, cortar las láminas de alga nori en rectángulos y utilizando cada rectángula para envolver los triángulos (o bolas) de arroz. Servir o comer inmediatamente o el nori perderá su sabor crujiente.
Una recomendación, si colocas distintos onigiri en una misma fuente, recomiendo que pongas un poquito del ingrediente de cada onigiri encima del triángulo/bola, para así poder diferenciarlos bien.

*Nota: en la ciudad de mexico el nori lo pueden encontrar en
 www.superoriental.com.mx , están en Division del norte # 2515 Col. Del Carmen Coyoacan, tienen un gran surtido de algas y productos orintales(china, India, Japon, Vietnam, etc). y la otra tienda que te sugiero es en Mikasa dirección San luis Potosí # 170 en la Colonia Roma ,esta tienda tiene puros productos japoneses. Ambas están geniales.
Etiquetas : , , , ,

Acordes digimon 1 (mariposa)

Por: Eduardo Jiménez


Los acordes de digimon 1, Mariposa.

Intro: (es preferible con cegillo)
Mi Do-La-Si
Mi Do-La-Si


Mi Re Mi Re
E---------------------------------------------
B---9-9997---7---10-------9-9997---7----------
G----------9---------------------9-----7------
Mi Re Mi Do-Si-La
E-----------------------------------7---------
B---9-9997---7---10-------9-9997------10------
G-7---------9--------------------9-------9----


Mi
Yo solamente quiero amarte
Sol#m
y todo mi calor brindarte
La
te haré olvidar
Do Re Mi
esas penas que te hacen mal
(E-4-7744-7h4-4h5-4h5h4h5--7)6º cuerda

*Nota: h=notas ligadas

Mi
Hay que dar el sentimiento
Sol#m
y en cada momento vivirlo
La
te haré olvidar
Do Re Mi
esas penas que te hacen mal
(E-4-7744-7h4-4h5-4h5h4h5--7)6º cuerda

Pre-coro:

Do#m Sol#m
Con el amor-o-o-o-or
La Mi
se puede siempre alcanzar lo mejor
Do#m Sol#m
Con el amor-o-o-o-or
La Si Do Re Si
los sueños que tengas se van a cumpliiiir.


Sol#m-La Si
(E--4h5-4h5-7-)1º cuerda

Coro:
Mi Si Do#m
Si tú lo deseas puedes volar
Sol#m La Sol#m Do#m
sólo tienes que confiar mucho en tí y seguir
La Si
puedes contar conmigo te doy todo mi apoyo

Mi Si Do#m
Si tú lo deseas puedes volar
Sol#m La
si tú quieres el cielo alcanzar
Sol#m Do#m
y las estrellas tocar
Do Re Mi(es preferible con cegillo)
Di-gi-mon.

Fin:
Mi Re Mi Re
E---------------------------------------------
B---9-9997---7---10-------9-9997---7----------
G----------9---------------------9-----7------
Mi Re Mi Do-Si-La
E-----------------------------------7---------
B---9-9997---7---10-------9-9997------10------
G-7---------9--------------------9-------9----
Mi
E--------------------------------
B---9h10h12----------------------
G-----------9--------------------


MODIFICACION A LA TRANSCRIPCION DE:
Camilazo (Camilazo12@yahoo.com)
Etiquetas : , , ,

Final Fantasy

Por: Eduardo Jiménez







Segun mi contador de entradas, esta seria la entrada numero 200!!
Entonces decidi hacerla en honor a mi juego favorito(y de muchas otras personas tambien) FINAL FANTASY y mi maldita maldicion de que nunca he podido acabar ninguno.


En 1986, el interés en el sistema FDS declinó, lo que puso a Square al borde de la bancarrota. Aproximadamente al mismo tiempo, el diseñador Hironobu Sakaguchi comenzó un ambicioso trabajo sobre un nuevo juego RPG de fantasía y aventuras para el Famicom Disk System, inspirado en parte por el popular juego de Enix, Dragon Quest (conocido en Estados Unidos como Dragon Warrior). Sakaguchi tenía el plan de retirarse después de la terminación del proyecto así que lo denominó Final Fantasy (Fantasía Final) porque era su juego final, aunque igualmente iba a ser el juego final de la empresa. De hecho, algunas personas creen que el nombre del juego fue inspirado por la salida de Squaresoft y no de Sakaguchi, aunque el propio Sakaguchi ha confirmado que el nombre se debe a sus planes para retirarse. De cualquier manera, Final Fantasy resultó estar lejos de ser el último videojuego de Squaresoft o de Sakaguchi. Final Fantasy revertió la desfortuna de Square y se convirtió en la franquicia principal de la empresa.
Yo empeze a jugarlo cuando tenia como 10 u 11 años con mi "play station1" era el numero IX donde el protagonista se llama zidane yitan (un vandalo) y la princesa Garlet pero que cambia su nombre al de Dagga. Tienen que salvar al mundo de un demonio llamado Kuja quien quiere destruir el mundo.
El personaje que mas me gusto fue vivi, el mago oscuro con un sombre y no sabe de donde viene,Me siento identificado con el.Y cuando llege al 4 disco...No funciono asi que nunca lo acabe.

Tiempo despues empeze a jugar el VIII donde es un toque mas de modernismo y el protagonista son leo y Rinoa, no recuerdo mucho me parece que igual llege al disco 3, y despues mi play se descompuso.

Recientemente jugue el X segun lei era el que mejor le gusto al publico, y si, realmente me gusto muchisimo con Tidus y Yuna de protagonistas, mucho mas dificil que todos los anteriores.Ya en la batalla final contra Seymour, donde esta en el interior de sinh, fue cuando empeñe mi play station 2 y por lo tanto nunca lo acabe, pero aun tengo mi memory card.

Cuando salga el XIII me juntare con alguien que tenga PS3 ja!.
Etiquetas : ,

Star Craft

Por: kent

yo soy un gran fanatico de los juegos de estrategia, me paso la vida jugando star craft
con mis amigos es un buen juego de estrategia que es un buen juego y se los recomiendo tambien se puede jugar en linea espero que les guste
Jugar
Etiquetas : ,

Nuevo elemento quimico

Por: Eduardo Jiménez
 Un correo que me llego, este es nuevo no como todos los demas de "ahora si van a cerrar hotmail" , lo transcribo igual que como me llego

¿Nuevo elemento de la tabla periódica, Ya conoces este elemento? NUEVO ELEMENTO QUÍMICO: MUJER Departamento de Análisis









1.- Análisis Químico:

Elemento: Mujer

Símbolo: Mu

Descubridor: Adán

Masa Atómica: Apropiada en 53.6 kg. (pero varia entre 40 y 150 kg.)

Frecuencia: Cantidades abundantes en todas las áreas urbanas.


2.- Propiedades Físicas

a.- Superficie generalmente cubierta por una capa de pintura

b.- Hierve espontáneamente, se congela por razones desconocidas.

c.- Se derrite si se le da un trato especial

d.- Se vuelve amarga si no se le usa correctamente.

e.- Rara vez se la encuentra en la naturaleza en estado virgen.

f.- Cede bajo presión ejercida en los puntos precisos..


3.- Propiedades Quimicas

a.- Tiene gran atracción por el oro, la plata y una amplia gama de piedras preciosas.

b.- Absorbe grandes cantidades de sustancias caras.

c.- Puede explotar espontáneamente sin previo aviso y sin razón aparente.

d.- Es insoluble en líquidos y su actividad aumenta por la saturación en alcohol etílico.

e.- Es el agente reductor de dinero más poderoso conocido por el hombre.


4.- Usos comunes:

a.- Altamente ornamental, especialmente en autos deportivos.

b.- Puede resultar de gran ayuda para la relajación.

c.- Agente limpiador muy efectivo.


5.- Pruebas realizadas:


a.- La muestra pura se torna rosada cuando se le descubre en su estado natural.

b.- Se torna verde cuando se le coloca junto a una muestra mejor.


6.- Peligros potenciales:


a.- Altamente peligrosa, salvo en manos experimentadas.

b.- Es ilegal poseer más de una, aunque puede tenerse varias en distintos lugares, mientras que no entren en contacto, en cuyo caso es inevitable una violenta explosión.



Advertencias:


a.- No existen dos iguales.

b.- Si bien parece un elemento abundante, se considera un bien escaso por lo no se encuentra con facilidad una en buen estado, por lo tanto valore lo que tiene.

Como apagar la compu de un amigo

Por: Eduardo Jiménez
Hace tiempo hize este video, es un truco sobre como apagarle la computadora a alguien es muy facil, nadamas para molestar ja!.
*Nota: El codigo es "shutdown.exe -s -t 00" por si no alcanzan a ver.

Chistes

Por: Eduardo Jiménez
Demonios ya ni se que poner, ahora solo les dejo 2 chistes
*Clic para ampliar
-----------------------------------------------------------------------------------------------

ÉL : ¡Sí!, Por fin. Que duro fue esperar.
Ella : ¿Quieres dejarme?
ÉL : NO! Ni siquiera lo pienses.
Ella : ¿Tú me amas?
ÉL : Por supuesto, una y otra vez
Ella : ¿Alguna vez me has sido infiel?
ÉL : Noo! ¿Cómo te atreves siquiera a preguntar eso?
Ella : ¿Me besarías?
ÉL : En cada oportunidad que tenga
Ella : ¿Te atreverías a golpearme?
ÉL : ¿Estás loca? No soy ese tipo de persona
Ella : ¿Puedo confiar en ti?
ÉL : Sí
Ella : ¡Mi amor!

Después del Matrimonio:
Lea de abajo a arriba

 -----------------------------------------------------------------------------------------------


En un carro iba una pareja de casados pero iban peleados, al pasar frente a una granja el novio vio unos cochinitos y le dijo a la mujer:
¿Familiares tuyos?
Y ella le contestó:
¡Sí, mis suegros!

-----------------------------------------------------------------------------------------------

Habían tres amigos que se llamaban Tonto, Nadie y Ninguno.
Tonto va y le dice al policía:
Nadie se cayó al pozo y Ninguno lo está ayudando.
Entonces el policía le responde:
¿Usted es tonto?
Sí, ¡Mucho gusto!

-----------------------------------------------------------------------------------------------


Esto es un matrimonio, que desde hace tiempo deseaban tener un hijo, y después de los años, lo consiguen.

Pasan un año, dos, tres, y el niño no habla, a los cinco años, el niño dice, "Abuelito", y después de dos días el abuelo se muere.

El padre, piensa:

- No puede ser que este niño traiga la mala suerte. Ha sido una casualidad.

Pasa un año más, dos, tres, cuatro y a los cinco años, el niño dice, "Abuelita", y a los dos días se muere la abuela.

El padre diciendo:

- Este niño definitivamente, trae mala suerte. Cualquier día dirá Papá y me tocara a mí, ya verás.

Pasa un año, dos, tres, cuatro, cinco, y el niño dice, "Papá".

Y el padre piensa:

- Ya me ha tocado a mí.

El padre, deja todo preparado y a los dos días se muere el vecino de enfrente.
Etiquetas : , ,

El cazador de la bruja descargar y ver online

Por: Eduardo Jiménez
Un pequeño manga que encontre en el foro del blog donde escribo "lomasinteresante"

•Título: El Cazador de la Bruja
•idioma: Japones/Subtitulos en Español
•Genero: Aventura, Drama, Misterio
•episodios: 26
•Fansub: Dark Subs
•formato: MP4
•Tamaño: 60 MB
•Estado: Terminada
•Calidad: Muy Buena
•Uploaders: la_ultima_rosa
•Servidor 1: Mediafire


sinopsis:
La historia se desarrolla de México a Perú y narra como Nadie,
una cazarrecompensas, encuentra a Ellis,
una chica sospechosa del asesinato de un prestigioso físico,
de lo cual parece no acordarse. Nadie acepta acompañar a Ellis
 en su viaje al sur, junto a una misteriosa piedra que guiará su camino,
 y así encontrar la Ciudad Eterna o "Wiñay Marka".
De cerca las sigue L.A, un joven chico que espía a Ellis porque la ama.
ONLINE


01. Mujer que huye
http://www.megavideo.com/?d=LHN2UF3G

02. Mujer que espera
http://www.megavideo.com/?d=RZCOO247

03. Mujer mojada
http://www.megavideo.com/?d=Z24HA1FP

04. Mujer objetivo
http://www.megavideo.com/?d=JRJCQMIH

05. Mujer vestida
http://www.megavideo.com/?d=E7LL1W28

06. Hombre enamorado
http://www.megavideo.com/?d=SBUM3Q08

07. Hombre que trabaja
http://www.megavideo.com/?d=SFQWY960

08. Mujer que miente
http://www.megavideo.com/?d=2IQ9OWHJ

09. Mujer que excava
http://www.megavideo.com/?d=BMJ68W1D

10. Hombre que vive con un Ángel
http://www.megavideo.com/?d=QB7AA3QU

11. Mujer maldita
http://www.megavideo.com/?d=IJB0ODNE

12. Hombre disparando
http://www.megavideo.com/?d=JBG0QAH7

13. Mujer que se esconde
http://www.megavideo.com/?d=HN27MOEA

14. Hoja de maple
http://www.megavideo.com/?d=H32K3KRI

15. Mujer que se opone
http://www.megavideo.com/?d=PWKI75JJ

16. Mujer enfadada
http://www.megavideo.com/?d=3JDVK76O

17. Mujer atrapada
http://www.megavideo.com/?d=7WAG4JT4

18. Mujer en desacuerdo
http://www.megavideo.com/?d=MUWLT5SR

19. Hombre que protege
http://www.megavideo.com/?d=DQUIBCO1

20. Mujer capturada
http://www.megavideo.com/?d=J3GUPCIA

21. Mujer libre
http://www.megavideo.com/?d=2XJ896AB

22. Chica que despierta
http://www.megavideo.com/?d=NOOGITV0

23. Mujer perdida
http://www.megavideo.com/?d=N6WCSST0

24. Hombre que muere
http://www.megavideo.com/?d=F7VS84N5

25. Mujer sagrada
http://www.megavideo.com/?d=W9BB02D7

26. Mujer resplandeciente
http://www.megavideo.com/?d=2YMRMX67




DESCARGAR

cazador de la bruja-www.lomasinteresante.net_1.mp4
cazador de la bruja-www.lomasinteresante.net_2.mp4
cazador de la bruja-www.lomasinteresante.net_3.mp4
cazador de la bruja-www.lomasinteresante.net_4.mp4
cazador de la bruja-www.lomasinteresante.net_5.mp4
cazador de la bruja-www.lomasinteresante.net_6.mp4
cazador de la bruja-www.lomasinteresante.net_7.mp4
cazador de la bruja-www.lomasinteresante.net_8.mp4
cazador de la bruja-www.lomasinteresante.net_9.mp4
cazador de la bruja-www.lomasinteresante.net_10.mp4
cazador de la bruja-www.lomasinteresante.net_11.mp4
cazador de la bruja-www.lomasinteresante.net_12.mp4
cazador de la bruja-www.lomasinteresante.net_13.mp4
cazador de la bruja-www.lomasinteresante.net_14.mp4
cazador de la bruja-www.lomasinteresante.net_15.mp4
cazador de la bruja-www.lomasinteresante.net_16.mp4
cazador de la bruja-www.lomasinteresante.net_17.mp4
cazador de la bruja-www.lomasinteresante.net_18.mp4
cazador de la bruja-www.lomasinteresante.net_19.mp4
cazador de la bruja-www.lomasinteresante.net_20.mp4
cazador de la bruja-www.lomasinteresante.net_21.mp4
cazador de la bruja-www.lomasinteresante.net_22.mp4
cazador de la bruja-www.lomasinteresante.net_23.mp4
cazador de la bruja-www.lomasinteresante.net_24.mp4
cazador de la bruja-www.lomasinteresante.net_25.mp4
cazador de la bruja-www.lomasinteresante.net_26.mp4

Aya hirano hablando español

Por: Eduardo Jiménez
La verdad no conocia a esta actriz de doblaje(supongo) pero me gusto mucho su voz, como que es de muy anime.En este video habla un poco de español y el gorro que usa la chava es gracioso. XD
Etiquetas : , , ,

Eres adicto a internet?

Por: Eduardo Jiménez
Los resultados

El Center for Online Addiction indica que al finalizar el test cuanto más alto sea el puntaje obtenido mayor es la dependencia de la web.
Si obtuvo un puntaje de entre:

20 y 49, “usted es un usuario promedio. Pasa mucho tiempo en Internet, pero tiene control sobre su uso”


50-79: “Experimenta ocasionales o frecuentes problemas a causa de Internet. Debería considerar el impacto en su vida”


80-100: “El uso que le da a Internet le causa problemas importantes en su vida. Debe evaluar el impacto de Internet en su vida”.



NOTA
Los autores del test piden a quienes eligieron frecuentemente las opciones 4 ó 5 y relean las preguntas para darse cuenta de cómo ciertas actividades pueden afectar la vida cotidiana. Y dan como ejemplo a las preguntas dos y catorce, relacionadas con las actividades caseras y con el descanso nocturno.
Hacer test Yo saque 59!!


1. Con que frecuencia se encuentra con que lleva más tiempo navegando del que pretendía estar?
1 = Raramente
2 = Ocasionalmente
3 = Frecuentemente
4 = Muy a menudo
5 = Siempre
0 = Nunca
2. Desatiende las labores de su hogar por pasar más tiempo frente a la computadora navegando?
1 = Raramente
2 = Ocasionalmente
3 = Frecuentemente
4 = Muy a menudo
5 = Siempre
0 = No
3. Prefiere excitarse con fotos o videos a través de Internet en lugar de intimar con su pareja?
1 = Raramente
2 = Ocasionalmente
3 = Frecuentemente
4 = Muy a menudo
5 = Siempre
0 = No
4. Con que frecuencia establece relaciones amistosas con gente que sólo conoce a través de Internet?
1 = Raramente
2 = Ocasionalmente
3 = Frecuentemente
4 = Muy a menudo
5 = Siempre
0 = Nunca
5. Con que frecuencia personas de su entorno le recriminan que pasa demasiado tiempo conectado a Internet?
1 = Raramente
2 = Ocasionalmente
3 = Frecuentemente
4 = Muy a menudo
5 = Siempre
0 = Nunca
6. Su actividad académica (escuela, universidad) se ve perjudicada porque dedica demasiado tiempo a navegar?
1 = Raramente
2 = Ocasionalmente
3 = Frecuentemente
4 = Muy a menudo
5 = Siempre
0 = No
7. Con que frecuencia chequea el correo electrónico antes de realizar otras tareas prioritarias?
1 = Raramente
2 = Ocasionalmente
3 =
Frecuentemente
4 =
Muy a menudo
5 = Siempre
0 = Nunca
8. Su productividad en el trabajo se ve perjudicada por el uso de Internet?
1 = Raramente
2 = Ocasionalmente
3 = Frecuentemente
4 = Muy a menudo
5 = Siempre
0 = No
9. Se vuelve precavido o reservado cuando alguien le pregunta en que dedica el tiempo que pasa navegando?
1 = Raramente
2 = Ocasionalmente
3 = Frecuentemente
4 = Muy a menudo
5 = Siempre
0 = No
10. Se evade de sus problemas de la vida real pasando un rato conectado a Internet?
1 = Raramente
2 = Ocasionalmente
3 = Frecuentemente
4 = Muy a menudo
5 = Siempre
0 = No
11. Se encuentra alguna vez pensando en lo que va a hacer la próxima vez que se conecte a Internet?
1 = Raramente
2 = Ocasionalmente
3 = Frecuentemente
4 = Muy a menudo
5 = Siempre
0 = No
12. Teme que su vida sin Internet sea aburrida y vacía?
1 = Raramente
2 = Ocasionalmente
3 = Frecuentemente
4 = Muy a menudo
5 = Siempre
0 = No
13. Se siente molesto cuando alguien lo/a interrumpe mientras esta navegando?
1 = Raramente
2 = Ocasionalmente
3 = Frecuentemente
4 = Muy a menudo
5 = Siempre
0 = No
14. Con que frecuencia pierde horas de sueño pasándolas conectado a Internet?
1 = Raramente
2 = Ocasionalmente
3 = Frecuentemente
4 = Muy a menudo
5 = Siempre
0 = Nunca
15. Se encuentra a menudo pensando en cosas relacionadas a Internet cuando no está conectado?
1 = Raramente
2 = Ocasionalmente
3 = Frecuentemente
4 = Muy a menudo
5 = Siempre
0 = No
16. Le ha pasado alguna vez eso de decir "solo unos minutitos más" antes de apagar la computadora?
1 = Raramente
2 = Ocasionalmente
3 = Frecuentemente
4 = Muy a menudo
5 = Siempre
0 = No
17. Ha intentado alguna vez pasar menos tiempo conectado a Internet y no lo ha logrado?
1 = Raramente
2 = Ocasionalmente
3 = Frecuentemente
4 = Muy a menudo
5 = Siempre
0 = No
18. Trata de ocultar cuanto tiempo pasa realmente navegando?
1 = Raramente
2 = Ocasionalmente
3 = Frecuentemente
4 = Muy a menudo
5 = Siempre
0 = No
19. Prefiere pasar mas tiempo online que con sus amigos en la vida real?
1 = Raramente
2 = Ocasionalmente
3 = Frecuentemente
4 = Muy a menudo
5 = Siempre
0 = No
20. Se siente ansioso, nervioso, deprimido o aburrido cuando no está conectado a Internet?
1 = Raramente
2 = Ocasionalmente
3 = Frecuentemente
4 = Muy a menudo
5 = Siempre
0 = No



Puntaje:

Etiquetas : , ,

Doraemon en la vida real

Por: Eduardo Jiménez
Como me gustaba esa serie en la que un gato hermafrodita sacaba mil inventos de su bolsa tipo canguro y le solucionaba la vida a mmm... napita creo que se llamaba el niño asi que me puse a buscar fotos y lo encontre en la vida real!! existe, doraemon existe.
Etiquetas : , , ,

12 Cosas para NO aburrirse en el supermercado

Por: Eduardo Jiménez

Encontre una lista y le hize unas pequeñas(minusculas) modificaciones.


1. Consigue 24 cajas de condones y colócalas al azar en los carros de la gente cuando no miren

2. Programa todos los despertadores de la sección hogar para que suenen en intervalos de 5 minutos

3. Haz un rastro de juego de tomate en el suelo hace los baños...

4. Acércate a un empleado y dile en tono serio: "código adams" y observa la reacción(solo en Aurrera)

5. Monta una tienda de campaña en el departamento de camping y diles al resto de los compradores que solo les invitas si traen almohadas del departamento de camas

6. Cuando se te acerque una chava y te pregunte si te puede ayudar, empieza a llorar y pregunta: ¿por qué no me dejan en paz?!

7. Mira fijamente a la cámara de seguridad y utilízala de espejo mientras rascas en tu nariz

8. Mientras miras pistolas/cuchillos pregúntale a la dependienta si sabe donde están los anti-depresivos(excelente)

9. Anda por el supermercado de forma sospechosa mientras tarareas en alto la música de misión imposible

10. Escóndete en los percheros y cuando la gente este echando un vistazo grita "fóllame, fóllame"(la mejor)

11. Cuando haya un aviso por megafonía ponte en posición fetal mientras dices "otra vez las voces"

12. Metete en un probador y grita muy alto: eh, no hay papel !!!!
Etiquetas : , , ,

Shut up and let me go (bitch)

Por: Eduardo Jiménez
Esta cancion la primera vez que la esuche pense que decia "i`m friki, i`m friki" pero ahora se que no de todos modos aunque es un poco fresa me gusta.
DESCARGAR CANCION
Con el nombre "the things things"

Callate y dejame ir
Callate y dejame irme
Esto duele , te lo estoy diciendo
Es la ultima vez que besaras mis labios
Ahora callate y dejame ir
Tus jeans estubieron tan limpios alguna vez
Te apuesto que has cambiado tu vestuario desde que nos conocimos

No oh tan facilmente estas encima mio
Se ha ido el amor eres tu el que deberia estar
Abrazandome , no soy contenible
Esta vez el amor no es sostenible

No estoy exagerando,no estoy mintiendo hacerca de esto...
No estoy exagerando,no estoy mintiendo hacerca de esto...
No estoy exagerando,no estoy mintiendo hacerca de esto...

Callate y dejame ir,HEY!

Callate y dejame ir
esto duele m lo que no puedo mostrar
Esta es la ultima vez que me tendras en espera
Ahora callate y dejame ir
Por miedo a lamentarse
Yo cambie desde que nos conocimos

Ahora oh estas tan facil encima mio
Se ha ido el amor soy yo la que deberia estar
Llendote no eres adorable
Quiero algo que no ignore

No estoy exagerando,no estoy mintiendo hacerca de esto...
No estoy exagerando,no estoy mintiendo hacerca de esto...
No estoy exagerando,no estoy mintiendo hacerca de esto...
Callate y dejame ir,Hey!

Oh amor, soporta esto!

Hey!

Callate y dejame irme
Esto duele , te lo estoy diciendo
Es la ultima vez que besaras mis labios

Ahora callate y dejame ir,
hey!

El rap de dragon ball AF

Por: Eduardo Jiménez
Un rap sobre dragon ball af, muy buena rola, parecido al de naruto que mañana se los pongo.
Canciones

Es mi carpeta de SkiDrive, solo busquen el archivo llamado "rap dragon ball af"
Etiquetas : , , , ,

Censurar internet?

Por: Eduardo Jiménez
A lo que voy, un tipo del "Partido Revolucional Intitucionalista" quiere proponer ante el ife que se censure el internet, si quieren leer mas acerca de esto aqui les dejo el link en HECHF donde por cierto yo escribi el articulo!! ja. Saludos
Etiquetas : ,

Preparando sushi..

Por: Eduardo Jiménez
En primer lugar, tenemos que cocinar el arroz para sushi. Como se necesita mucho hay que preparar bastante: 900 gramos de arroz para 4 a 6 personas. Con esta cantidad de arroz y un 20% por ciento más de agua obtendremos un arroz blanco normal.
Además, hay que preparar el vinagre para aliñar el arroz: a 90 mililitros de vinagre le añadimos 4 cucharadas de azúcar y una de sal. Es preferible que sea de arroz (lo podemos adquirir en tiendas naturistas o en tiendas de productos japoneses). Si no lo encontráis, podéis aliñarlo con vinagre normal.
Cuando el arroz está todavía muy caliente, se coloca en un recipiente grande y ancho o en un molde grande. Se le añade el vinagre preparado y se mezcla, intentando no aplastar los granos de arroz. Cuando hemos mezclado bien estos ingredientes, hay que airearlo con un abanico ( si no tenéis un abanico, una revista o algo similar puede serviros). Dicen que así los granos de arroz quedan más brillantes y bonitos.
Los pescados crudos se preparan en cortes iguales a los del sashimi.
Se forman bolas alargadas con una cucharada y media o dos del arroz aliñado con vinagre, bolas mucho menores que las del oniguiri. Si estáis seguros de que os gusta el picante, untad la parte superior de las bolas con un poco de wasabi. Si no estáis muy seguros, podéis preparar el sushi sin wasabi y, en el momento de comerlo, mojarlo en la salsa de soja con wasabi.
Se coloca el pescado y el marisco encima de cada bola y los sushis ya están a punto.
El atún, tanto la carne roja como la ventresca, el besugo, el lenguado y la lubina son muy adecuados para preparar el sushi. Las gambas también. Pero en el caso de las gambas, cuando se preparan en casa, es mejor hervirlas un momento, quitarles la piel, retirarles la cabeza y cortarlas por la mitad. El pulpo hervido también es apropiado para preparar sushi. Con la tortilla a la japonesa también se hace y sirve para variar de sabor.
Si alguno de vuestros invitados siente rechazo por el pescado crudo, os enseñaremos un par de sushis occidentalizados y menos chocantes. En primer lugar, es bastante recomendable el sushi de salmón ahumado. También suele tener éxito el sushi con un trozo de aguacate maduro, de sabor muy parecido al de la ventresca del atún.
Con estos dos tipos de sushi ‘light’ y los de tortilla, los de gambas y los de pulpo hervido, los invitados no familiarizados con la cocina japonesa no se van a quedar nunca con hambre.
Forma de comer el sushi:
El sushi se moja en salsa de soja antes de comerlo. Si lo preferís algo picante, añadid un poco de wasabi a la salsa de soja. Al mojarlo en la salsa, no hay que meter la parte del arroz sino la del sashimi. Ésta es la manera correcta. El sushi se puede comer con los palillos o con los dedos, porque coger el sushi con los palillos, darle la vuelta, mojar sólo la parte del pescado y llevárselo a la boca es una operación complicada. Podéis cogerlo tranquilamente con los dedos. Que aproveche.
 Extraido de recetas de cocina
Etiquetas : , , ,

Tablaturas de las canciones de zelda

Por: Eduardo Jiménez
Les pongo las tablaturas de todas las canciones de zelda

Zelda`s Lullaby

Eº----10----------10----------10-17-15---------------
Bº-12----10----12----10---12-----------15--13-12-14--
Gº---------------------------------------------------
Dº---------------------------------------------------
Aº---------------------------------------------------
Eº---------------------------------------------------

Epona`s Song

Eº-10-----------10-----------10----------------------
Bº----12--10-------12--10-------12-10--12-10---------
Gº---------------------------------------------------
Dº---------------------------------------------------
Aº---------------------------------------------------
Eº---------------------------------------------------

Saria`s Song

Eº---5------5------5-7-12-10-7-8-7-------------------
Bº-6---7--6---7--6-----------------8-5-----5-8-5-----
Gº---------------------------------------7-----------
Dº---------------------------------------------------
Aº---------------------------------------------------
Eº---------------------------------------------------

Song of Time

Eº-5--------5-----5-8-7------------------------------
Bº--------6-----6-------8-6-8-10---------------------
Gº---7-------7-------------------7----9--------------
Dº---------------------------------10---12-----------
Aº---------------------------------------------------
Eº---------------------------------------------------

Song of Storms

Eº-----10-----10--12-13--12r13p12s8-8----------------
Bº---6------6-------------------------10-------------
Gº-7------7------------------------------------------
Dº---------------------------------------------------
Aº---------------------------------------------------
Eº---------------------------------------------------

Minuet of Forest

Eº-----10--------------------------------------------
Bº-------12---10-12-10-------------------------------
Gº---------------------------------------------------
Dº-12------------------------------------------------
Aº---------------------------------------------------
Eº---------------------------------------------------

Bolero of Fire

Eº---------------------------------------------------
Bº--------------10----10-----------------------------
Gº-10----10--------10----10--------------------------
Dº----12----12--------------12-----------------------
Aº---------------------------------------------------
Eº---------------------------------------------------

Serenade of Water

Eº---------------------------------------------------
Bº--------10-10--12----------------------------------
Gº-----10--------------------------------------------
Dº-12------------------------------------------------
Aº---------------------------------------------------
Eº---------------------------------------------------

Requiem of Spirit

Eº---------------------------------------------------
Bº-----------10--------------------------------------
Gº----10--------10-----------------------------------
Dº-12----12--------12--------------------------------
Aº---------------------------------------------------
Eº---------------------------------------------------

Nocturne of Shadows

Eº---------------------------------------------------
Bº-12---10-10----12-10-------------------------------
Gº---------------------10----------------------------
Dº------------12-------------------------------------
Aº---------------------------------------------------
Eº---------------------------------------------------

Prelude of Light

Eº-10------10-------10-------------------------------
Bº----10------10-12----------------------------------
Gº---------------------------------------------------
Dº---------------------------------------------------
Aº---------------------------------------------------
Eº---------------------------------------------------
Etiquetas : , , ,

GARAVATOS 1 capitulo piloto

Por: Eduardo Jiménez
Despues de 24 horas de produccion (aproximadamente) se termino de filmar el capitulo piloto de mi manga llamado "GARAVATOS" espero que les guste.
Cualquier parecido a la realidad es pura coincidencia, no nos hacemos responsables por cualquier conflicto.
Etiquetas : , , , ,

Naruto manga 447 spoiler

Por: Eduardo Jiménez
Encontre un spoiler escrito:

Hanzou da ordenes para matar a Nagato. Los shinobi de la aldea oculta en la Lluvia aparecen.
Nagato repele sus kunais con el Shinra Tensei, sorprendiendo a los ninjas.
Aprovecha una oportunidad para salvar a Konan, pero recibe golpes en sus piernas con las tecnicas Katon de Hanzo.
Sus piernas tiemblan...
(Parece ser que es por eso que esta en silla de ruedas...es una suposicion obvia)
Hanzou se sorprende cuando Nagato lo enfrenta con su Rinnegan, aun despues de haber sido golpeado por sus tecnicas Katon.
Mientras Nagato se derrumba,
Invocacion: Gedou Ma Zou [Lit.: Estatua Heretica Demoniaca]
(Parecida a la estatua para extraer los Bijuus)
Konan grita: "No uses esa tecnica!"
Varias varillas negras salen de la estatua y se clavan en la espina dorsal de Nagato.
Por lo tanto, en Modo Musou [Lit: sin igual, incomparable], algo parecido a dragones blancos emergen de la boca de la estatua.
Los dragones golpean a los shinobis de la Luvia y a los ANBUS, sus almas son extraidas una por una.
Los demas ninjas son derrribados. (Danzou probablemente se retiro despues de ver la estatua)
Hanzou escapa atravez del Shunshin no Jutsu.

Fin de la historia, de regreso al tiempo actual.

Y despues de eso, dice algo acerca de sus camaradas murieron uno por uno.

El reclama la respuesta de Naruto.
Naruto recuerda a Ero-Sennin y dice.
(Cosas de entenderse unos a los otros)
[Naruto:] Ero-sennin creia en mi y me lo confio.
Es por eso que yo creo en lo que decia Jiraiya.
Esa es mi respuesta!!
Y es por eso que no te matare
Etiquetas : , ,

Modificaciones al blog

Por: Eduardo Jiménez
Hize algunos cambios al blog; cambie el header, quite algunas cosas de la barra lateral etc..(esto es para que carge mas rapido el blog) Ademas se van a agregar unas cosas como una seccion de discos pra descargar y estoy haciendo un manga, llamado GARAVATOS.
Entonces esten al pendiente de nuevas cosas
Etiquetas : ,

GARAVATOS

Por: Eduardo Jiménez
Todas las peliculas de live action(anime con personajes reales) han tenido su anime previamente, pero que pasaria si fuera al reves... asi nace GARAVATOS (con mayusculas) un ¿manga? inspirado en la vida real.Osea en mi escuela; apenas estoy diseñando el capitulo piloto.
Les dejo un preview:















*Clic para ampliar
Etiquetas : , , , ,

TNT 17 JUNIO 2009, 18-21 de junio

Por: Eduardo Jiménez
Como saben la tnt se recorrio, estan son las nuevas fechas(GRACIAS AL BLOG DE KUROSAKI):
Se celebraran los dias

Jueves 18
Viernes 19
Sabado 20
Domingo 21

1. Salon Lerdo

Jueves 18 de Junio (Antes Jueves 30 de Abril)
12:00 “Aversor” tributo a Spawn.
12:45 “Grupo pendiente de confirmar”
13:30 “Ensamble Quimera” presenta música de su próximo álbum “Overture” descarga el sencillo gratis en www.ensamblequimera.com
14:15 “Némesis” género de anime.
15:00 “Shokora” género J-pop.
15:45 “Satsujin” género anime.
16:30 “Tenshi” género de anime.
17:15 “K-mikaze” género anime, J-pop, J-rock y OST para videojuegos.
18:00 “Ryuu Killers Project”celebra con la banda su cuarto aniversario.

Viernes 19 de Junio (Antes Viernes 1 de Mayo)
12:00 “Ensamble Quimera” presenta música de su próximo álbum “Overture” descarga el sencillo gratis en www.ensamblequimera.com
13:00 “Mirácula …visual kei…forever”
14:00 “Koncreto” Death metal.
15:00 “Estática” Electrónico.
16:00 “Los Mamastroficos” Funk, disco, latino y rock una mezcla de estos géneros.
17:00 Firma de autógrafos con “Yumi Matsuzawa” interprete japonesa de los temas de ánime más famosos en Japón y en el resto del mundo, una de las canciones más conocidas en México es el tema de Caballeros del Zódiaco en la saga de Hades.
18:00 “Concurso de Cosplay categoría grupal”

Sabado 20 de Junio (Antes Sabado 2 de Mayo)
12:00 “Black Babilón” Hard Rock.
13:00 “El1te” Rock, Punk, Alternativo.
14:00 “D.I.V.A.” New Latin Metal.
15:00 “Plug Dollie”
16:00 “Sr. Misterio” Rock surft.
17:00 “Yumi Matsuzawa” primera presentación en México en exclusiva sólo en TNT.
18:00 “Concurso de Cosplay categoría varonil”

Domingo 21 de Junio (Antes Domingo 3 de Mayo)
12:00 “Umpalumpas” Happy progresive.
13:00 “Audionautas” Electrónico.
14:00 “Trágico Ballete”
15:00 “Fuego Frió” Grunge rock.
16:00 “Idally” (Idols)
16:30 “Ullzang Girls” (Idols)
17:00 “Yumi Matsuzawa” segunda presentación en México en exclusiva sólo en TNT.
18:00 “Concurso de Cosplay categoría femenil”

2. Gran salon

Jueves 18 de Junio (Antes Jueves 30 de Abril)
13:00 Revista Tu Pin Up presenta “Los autores y la cultura del cómic” ponentes: Mauricio Herrera, Edgar “Wolvi” Gómez y Rubén Nava.
14:00 “Historia del cómic en México” por Grupo Ars Longa Comics de la Sociedad Nacional de Dibujantes.
15:00 “Grupo Editorial Vid” conferencia a cargo del Lic. Fco. Jiménez -Director Editorial.
16:00 “Demostración del curso de Dibujarte School” por Grupo Editorial Vanguardia.
17:00 “Éxitos del Anime Internacional” presentado por: Grupo Ars Longa Comics de la Sociedad Nacional de Dibujantes.
18:00 “Campall” presenta: Conferencia de maquillaje, caracterización y stagecombat.

Viernes 19 de Junio (Antes Viernes 1 de Mayo)
12:00 “Grupo Yareaj Laila Belly Dance”
13:00 “Al-Zuhara” bajo la dirección de Pamela Luna, Bellydance” (Danzas de oriente)
14:00 “Aversor” tributo a Spawn.
15:00 “Suckalemon” género de animación japonesa.
16:00 “Grupo Gasara” género de animación japonesa.
17:00 “K-mikaze” género de anime, J-pop, J-rock y OST para videojuegos.
18:00 “Koneko Neko” Idols.

Sabado 20 de Junio (Antes Sabado 2 de Mayo)
12:00 “Exhibición de Danza Polinesia” grupo Te Ori No Porinetia Profa. Concepción Sánchez.
13:00 “Exhibición de Lima Lama” Grupos Dragón Prof. Jorge García Noxa CN 5 dan.
14:00 “Satsujin” interpretando temas de Pum it up, anime y videojuegos.
15:00 “Ryuu Killers Project” celebra con ellos su cuarto aniversario ¡Felicidades!
16:00 “Némesis” género de anime.
17:00 “Shokora” género J-pop.
18:00 “Desde Tampico y San Luis Potosí” Nubia Mashushe y Klavita n_n Hello Project & Music Fancover.

Domingo 21 de Junio (Antes Domingo 3 de Mayo)
11:30 Exhibición de “Tae Kwon Do” grupo Alianza.
12:00 Exhibición de “Danza Árabe” Casa de cultura Raúl Anguiano. Profa. Quetzally Gutiérrez.
13:00 “Stefan Jackson” el show que no te puedes perder.
14:00 Regresa el grupo de “Osaka Nigths” a TNT 17 después de una breve ausencia, disfruta sus rolas de J-pop, anime y videojuegos.
15:00 “Danza Árabe y Jazz” coreografías de danza con temas de Tsubasa.
16:00 “L´arc on Fire” tributo a L´arc en Ciel.
17:00 “Thenshi” el show más esperado por todos los fans de anime.
18:00 “Stultifera Navis-Gaitas y Tambores Medievales”
Etiquetas : , , ,

Acordes de Rose (opening de nana)

Por: Eduardo Jiménez
A lo mejor abro una seccion especial para acordes y tablaturas, todo depende de como sea recibido este post.
Es para guitarra y si no saben leerlas solo les puedo decir que el numero indica el traste y las lineas la cuerda; de arriba hacia abajoestan acomodadas  de la mas delgada a la mas gruesa.






E||--------------------------|------------------------|------------------------|
B||--3-----3--3----3--3--3---|--3----3--3----3--3--3--|--3----3--3----3--3--3--|
G||--2-----2--2----2--2--2s--|--3----3--3----3--3--3--|--0----0--0----0--0--0--|
D||--0-----0--0----0--0--0---|--0----0--0----0--0--0--|--0----0--0----0--0--0--|
A||--------------------------|------------------------|------------------------|
E||--------------------------|------------------------|------------------------|


D5 D5 D5 D5 D5 D5 D5 D5 D5 D5 D5 D5 D5 D5 D5 D5 D5 D5
^ v ^ v ^ v ^ v ^ v ^ v ^ v ^ v ^ v
Q E Q E E E Q E Q E E E Q E Q E E E
------------------------|-------------------------|------------------------|
--3----3--3----3--3--3--|--3----3--3----3--3--3---|--3----3--3----3--3--3--|
--2----2--2----2--2--2--|--2----2--2----2--2--2s--|--3----3--3----3--3--3--|
--0----0--0----0--0--0--|--0----0--0----0--0--0---|--0----0--0----0--0--0--|
------------------------|-------------------------|------------------------|
------------------------|-------------------------|------------------------|


Verso
D5 D5 D5 D5 D5 D5 D5 D5 D5 D5 D5 D5 D5 D5 D5 D5 D5 D5 D5 D5
^ v ^ v ^ v ^ v ^ v ^ v ^ ^ ^ ^ ^ ^ ^ ^
Q E Q E E E Q E Q E E E E E E E E E E E
------------------------|------------------------|-----------------------------|
--3----3--3----3--3--3--|--3----3--3----3--3--3--|--3-----3--3--3--3--3--3--3--|
--0----0--0----0--0--0--|--2----2--2----2--2--2--|--2-----2--2--2--2--2--2--2--|
--0----0--0----0--0--0--|--0----0--0----0--0--0--|--0-----0--0--0--0--0--0--0--|
------------------------|------------------------|-----------------------------|
------------------------|------------------------|-----------------------------|


C5 C5 C5 C5 C5 C5 C5 C5 Bb5 Bb5 Bb5 Bb5 Bb5 Bb5 Bb5 Bb5
^ ^ ^ ^ ^ ^ ^ ^ ^ ^ ^ ^ ^ ^ ^ ^
E E E E E E E E E E E E E E E E
--------------------------|----------------------------------|
--------------------------|----------------------------------|
--5--5--5--5--5--5--5--5--|--3---3---3---3---3---3---3---3---|
--5--5--5--5--5--5--5--5--|--3---3---3---3---3---3---3---3---|
--3--3--3--3--3--3--3--3--|--1---1---1---1---1---1---1---1---|
--------------------------|----------------------------------|


C5 C5 C5 C5 C5 C5 C5 C5 D5 D5 D5 D5 D5 D5 D5 D5
^ ^ ^ ^ ^ ^ ^ ^ ^ ^ ^ ^ ^ ^ ^ ^
E E E E E E E E E E E E E E E E
--------------------------|--------------------------|
--------------------------|--------------------------|
--5--5--5--5--5--5--5--5--|--7--7--7--7--7--7--7--7--|
--5--5--5--5--5--5--5--5--|--7--7--7--7--7--7--7--7--|
--3--3--3--3--3--3--3--3--|--5--5--5--5--5--5--5--5--|
--------------------------|--------------------------|


C5 C5 C5 C5 C5 C5 C5 C5 Bb5 Bb5 Bb5 Bb5 Bb5 Bb5 Bb5 Bb5
^ ^ ^ ^ ^ ^ ^ ^ ^ ^ ^ ^ ^ ^ ^ ^
E E E E E E E E E E E E E E E E
--------------------------|----------------------------------|
--------------------------|----------------------------------|
--5--5--5--5--5--5--5--5--|--3---3---3---3---3---3---3---3---|
--5--5--5--5--5--5--5--5--|--3---3---3---3---3---3---3---3---|
--3--3--3--3--3--3--3--3--|--1---1---1---1---1---1---1---1---|
--------------------------|----------------------------------|


C5 C5 D5 D5 D5 D5 D5 D5 D5 D5 D5 D5 D5 D5
^ v ^ v ^ v ^ v ^ v ^ ^ v ^
E E Q Q Q Q E Q E E E Q E Q E E E
-----------------------|------------------------|------------------------|
-----------------------|--3----3--3----3--3--3--|--3----3--3----3--3--3--|
--5--5-----------------|--2----2--2----2--2--2--|--2----2--2----2--2--2--|
--5--5-----------------|--0----0--0----0--0--0--|--0----0--0----0--0--0--|
--3--3-----------------|------------------------|------------------------|
-----------------------|------------------------|------------------------|


D5 D5 D5 D5 D5 D5 D5 D5 D5 D5 D5 D5 D5 D5 D5 D5 D5 D5
^ v ^ v ^ v ^ v ^ v ^ v ^ v ^ v ^ v
Q E Q E E E Q E Q E E E Q E Q E E E
------------------------|------------------------|------------------------|
--3----3--3----3--3--3--|--3----3--3----3--3--3--|--3----3--3----3--3--3--|
--2----2--2----2--2--2--|--2----2--2----2--2--2--|--2----2--2----2--2--2--|
--0----0--0----0--0--0--|--0----0--0----0--0--0--|--0----0--0----0--0--0--|
------------------------|------------------------|------------------------|
------------------------|------------------------|------------------------|


D5 D5 D5 D5 D5 D5 D5 D5 D5 D5 D5 D5 D5 D5 D5 D5 D5 D5
^ v ^ v ^ v ^ v ^ v ^ v ^ v ^ v ^ v
Q E Q E E E Q E Q E E E Q E Q E E E
------------------------|------------------------|------------------------|
--3----3--3----3--3--3--|--3----3--3----3--3--3--|--3----3--3----3--3--3--|
--2----2--2----2--2--2--|--2----2--2----2--2--2--|--2----2--2----2--2--2--|
--0----0--0----0--0--0--|--0----0--0----0--0--0--|--0----0--0----0--0--0--|
------------------------|------------------------|------------------------|
------------------------|------------------------|------------------------|


Bb5 Bb5 Bb5 Bb5 Bb5 Bb5 Bb5 Bb5 Bb5 Bb5 Bb5 Bb5
^ ^ ^ ^ ^ ^ ^ ^ ^ ^ ^ ^
E E E E Q Q E E E Q E Q
----------------------------|------------------------------|
----------------------------|------------------------------|
--3---3---3---3---3----3----|--15--15--15--15----15--15----|
--3---3---3---3---3----3----|--15--15--15--15----15--15----|
--1---1---1---1---1----1----|--13--13--13--13----13--13----|
----------------------------|------------------------------|


Bb5 Bb5 Bb5 Bb5 Bb5 Bb5 Bb5 Bb5 Bb5 Bb5 Bb5 Bb5
^ ^ ^ ^ ^ ^ ^ ^ ^ ^ ^ ^
E E E E Q Q E E E Q E Q
----------------------------|------------------------------|
----------------------------|------------------------------|
--3---3---3---3---3----3----|--15--15--15--15----15--15----|
--3---3---3---3---3----3----|--15--15--15--15----15--15----|
--1---1---1---1---1----1----|--13--13--13--13----13--13----|
----------------------------|------------------------------|


Bb5 Bb5 Bb5 Bb5 Bb5 Bb5 Bb5 Bb5 Bb5 Bb5 Bb5 Bb5
^ ^ ^ ^ ^ ^ ^ ^ ^ ^ ^ ^
E E E E Q Q E E E Q E Q
----------------------------|------------------------------|
----------------------------|------------------------------|
--3---3---3---3---3----3----|--15--15--15--15----15--15----|
--3---3---3---3---3----3----|--15--15--15--15----15--15----|
--1---1---1---1---1----1----|--13--13--13--13----13--13----|
----------------------------|------------------------------|


A5 A5 A5 A5 A5 A5 A5 A5 A5 A5
^ ^ ^ ^ ^ ^ ^ ^ ^ ^
E E E E E E E E E E Q Q Q
--------------------------|-----------------------|
--------------------------|-----------------------|
--2--2--2--2--2--2--2--2--|--2--2-----------------|
--2--2--2--2--2--2--2--2--|--2--2-----------------|
--0--0--0--0--0--0--0--0--|--0--0-----------------|
--------------------------|-----------------------|


charrs Veise
D5 D5 D5 D5 D5 D5 D5 D5 D5 D5 D5 D5 D5 D5 D5 D5
^ ^ ^ ^ ^ ^ ^ ^ ^ ^ ^ ^ ^ ^ ^ ^
E E E E E E E E E E E E E E E E
------------------------------|-----------------------------|
--3------3--3--3--3--3--3--3--|--3-----3--3--3--3--3--3--3--|
--2------2--2--2--2--2--2--2--|--2-----2--2--2--2--2--2--2--|
--0------0--0--0--0--0--0--0--|--0-----0--0--0--0--0--0--0--|
------------------------------|-----------------------------|
------------------------------|-----------------------------|


C5 C5 C5 C5 C5 C5 C5 C5 C5 C5 C5 C5 C5 C5 C5 C5
^ ^ ^ ^ ^ ^ ^ ^ ^ ^ ^ ^ ^ ^ ^ ^
E E E E E E E E E E E E E E E E
--------------------------|--------------------------|
--------------------------|--------------------------|
--5--5--5--5--5--5--5--5--|--5--5--5--5--5--5--5--5--|
--5--5--5--5--5--5--5--5--|--5--5--5--5--5--5--5--5--|
--3--3--3--3--3--3--3--3--|--3--3--3--3--3--3--3--3--|
--------------------------|--------------------------|


Bb5 Bb5 Bb5 Bb5 Bb5 Bb5 Bb5 Bb5 Bb5 Bb5 Bb5 Bb5 Bb5 Bb5 Bb5 Bb5
^ ^ ^ ^ ^ ^ ^ ^ ^ ^ ^ ^ ^ ^ ^ ^
E E E E E E E E E E E E E E E E
----------------------------------|----------------------------------|
----------------------------------|----------------------------------|
--3---3---3---3---3---3---3---3---|--3---3---3---3---3---3---3---3---|
--3---3---3---3---3---3---3---3---|--3---3---3---3---3---3---3---3---|
--1---1---1---1---1---1---1---1---|--1---1---1---1---1---1---1---1---|
----------------------------------|----------------------------------|


A5 A5 A5 A5 A5 A5 A5 A5 A5 A5 A5 A5 A5 A5 A5 A5 D5 D5 F5 C5 Bb5
^ ^ ^ ^ ^ ^ ^ ^ ^ ^ ^ ^ ^ ^ ^ ^ ^ ^ ^ ^ ^
E E E E E E E E E E E E E E E E E Q Q Q E
--------------------------|--------------------------|-------------------------|
--------------------------|--------------------------|-------------------------|
--2--2--2--2--2--2--2--2--|--2--2--2--2--2--2--2--2--|--7--7----10----5----3---|
--2--2--2--2--2--2--2--2--|--2--2--2--2--2--2--2--2--|--7--7----10----5----3---|
--0--0--0--0--0--0--0--0--|--0--0--0--0--0--0--0--0--|--5--5-----8----3----1---|
--------------------------|--------------------------|-------------------------|


Bb5 D5 D5 F5 C5 Bb5 Bb5
^ ^ ^ ^ ^
Q E E E E E E E Q Q Q E Q E E E E E E
-------------------------|-------------------------|-------------------------|
-------------------------|-------------------------|-------------------------|
--L----------------------|--7--7----10----5----3---|--L----------------------|
--L----2--2--3--5--3--2--|--7--7----10----5----3---|--L----2--2--3--5--3--2--|
--L----------------------|--5--5-----8----3----1---|--L----------------------|
-------------------------|-------------------------|-------------------------|


D5 D5 F5 C5 Bb5 Bb5 D5 D5 F5 C5 Bb5
^ ^ ^ ^ ^ ^ ^ ^ ^ ^
E Q Q Q E Q E E E E E E E Q Q Q E
-------------------------|-------------------------|-------------------------|
-------------------------|-------------------------|-------------------------|
--7--7----10----5----3---|--L----------------------|--7--7----10----5----3---|
--7--7----10----5----3---|--L----2--2--3--5--3--2--|--7--7----10----5----3---|
--5--5-----8----3----1---|--L----------------------|--5--5-----8----3----1---|
-------------------------|-------------------------|-------------------------|


Bb5
Q E E E E E E
-------------------------||
-------------------------||
--L----------------------||
--L----2--2--3--5--3--2--||
--L----------------------||
-------------------------||

Tablatura para bajo del opening nana rose

Intro guitarra x2
tercer timepo entra bajo

G|------8/-----------|
D|-------------------|
A|-------------------|
E|-------------------|

G|-0-0-0-0-0-0-0-0-0---1-2-1-|
D|---------------------------|
A|---------------------------|
E|---------------------------|

G|-0-0-0-0-0-0-0-0-0-----------|
D|---------------------4444444-|
A|-----------------------------|
E|-----------------------------|

When I was darkness at that time
fureteru kuchibiru
heya no katasumi de......
G|-------------------|
D|-------------------|
A|-------------------|
E|-------------------|

I cry

G|-------x------------|
D|-------x------------|
A|-------x------------|
E|-------x------------|

mogakeba mogaku hodo tsukisasaru kono kizu
yaburareta yakusoku hurt me
G|-0-0-0-0-0-0-0-0-0---1-2-1-|
D|---------------------------|
A|---------------------------|
E|---------------------------|

.......

G|-0-0-0-0-0-0-0-0-0-----------|
D|---------------------4444444-|
A|-----------------------------|
E|-----------------------------|

Nobody can save me

PM
G|--/5-66--66-6-5-5--------|
D|-------------------------|
A|-------------------------|
E|-------------------------|

kamisama hitotsu dake
tomete saku you na ............


PM
G|--66--66-6--5-5--------|
D|-----------------------|
A|-----------------------|
E|-----------------------|

my love

G|--5555555555-----------|
D|-----------------------|
A|-----------------------|
E|-----------------------|

I need your love. I'm a broken rose

G|----0-x1---8-x1----|
D|-------------------|
A|-------------------|
E|-------------------|

maichiru kanashimi your song
ibasho nai kodoku na my life

G|--------------------777777777-666666666--------|
D|----------66-77-66-----------------------------|
A|-----------------------------------------------|
E|-----------------------------------------------|
I need your love. I'm broken rose

G|----------56--888888-------|
D|--4x1----------------------|
A|---------------------------|
E|---------------------------|


Oh baby, help me from frozen pain
with your smile, your eyes,
and sing me, just for me

G|--------------------777777777-666666666--------|
D|----------66-77-66-----------------------------|
A|-----------------------------------------------|
E|-----------------------------------------------|
I wanna need your love...
I'm broken rose
I wanna need your love...

G|---------------0-0---4-2-1-|
D|--4-4-----2-1--------------|
A|-------2-------------------|
E|---------------------------|

When you are with me at that time
anata no kage wo oikakete
hadashi de kakenukete stop me

G|--------------------------------------------------------------------|
D|--------------------------------------------------------------------|
A|--x1----x1---x1---x1---x1--x1--------------------------------11-----|
E|--13----11---10---11---13--11------10-10-10-10-10--11-11-10---------|

tozaseba tozasu hodo motsuretekukono ai
yuruyaka ni yasashiku kiss me

G|-0-0-0-0-0-0-0-0-0---1-2-1-|
D|---------------------------|
A|---------------------------|
E|---------------------------|

.......
G|-0-0-0-0-0-0-0-0-0-----------|
D|---------------------4444444-|
A|-----------------------------|
E|-----------------------------|


Nobody can save me

PM
G|--/5-66--66-6-5-5--------|
D|-------------------------|
A|-------------------------|
E|-------------------------|
kogoeru bara no you ni
yasashiku nemuritai....

PM
G|--66--66-6--5-5--------|
D|-----------------------|
A|-----------------------|
E|-----------------------|

my tears
G|--5555555555-----------|
D|-----------------------|
A|-----------------------|
E|-----------------------|

I need your love. I'm a broken rose

G|----0-x1---6-8-x1----|
D|---------------------|
A|---------------------|
E|---------------------|



kareochiru kanashimi my soul
kuzureteku kodoku na little girl


G|-8-8-12-8-6-6-6-x1----5-x1--------------|
D|----------------------------------------|
A|----------------------------------------|
E|----------------------------------------|
I need your love. I'm broken rose


G|--2-2--0--------6-6-5--8-x1---|
D|----------4-x1----------------|
A|------------------------------|
E|------------------------------|
Oh baby, help me from frozen pain
with your smile, your eyes,
and sing me, just for me


G|--------------------777777777-666666666--------|
D|----------66-77-66-----------------------------|
A|-----------------------------------------------|
E|-----------------------------------------------|

I wanna need your love...


G|-----------------------|
D|---0----0---0----0-----|
A|-----------------------|
E|-----------------------|

I'm broken rose
I wanna need your love...

G|----------------------------------------------|
D|------------------------------12-10-----------|
A|--10-1212--10-1212--/14-14-14-----------------|
E|----------------------------------------------|


G|----0-00-----------|
D|-------------------|
A|-------------------|
E|-------------------|


G|-0-0-0-0-0-0-0-0-0---1-2-1-|
D|---------------------------|
A|---------------------------|
E|---------------------------|

G|---7-/11-11-12~-----------|
D|--------------------------|
A|--------------------------|
E|--------------------------|

nobody can help me
nobody can help me
i am a broken rose


G|----0----0---0----0----|
D|-----------------------|
A|-----------------------|
E|-----------------------|
I need your love. I'm a broken rose

G|----0-x1---6-8-x1----|
D|---------------------|
A|---------------------|
E|---------------------|
maichiru kanashimi your song
ibasho nai kodoku na my life

G|-8-8-12-8-6-6-6-x1----5-x1--------------|
D|----------------------------------------|
A|----------------------------------------|
E|----------------------------------------|

I need your love. I'm broken rose


G|--2-2--0--------6-6-5--8-x1---|
D|----------4-x1----------------|
A|------------------------------|
E|------------------------------|

Oh baby, help me from frozen pain
with your smile, your eyes,
and sing me, just for me


G|--------------------777777777-666-1010101010--------|
D|----------66-77-66----------------------------------|
A|----------------------------------------------------|
E|----------------------------------------------------|

Etiquetas : , , , ,

- Copyright © Locos Otakus - Date A Live - Powered by Blogger - Designed by Johanes Djogan -